Oops, an error
Loading. Please wait.

Sadie Bass Tab

version 3
version 3

Whole song

Interactive

604 views 3 this week
no commentswrite comment
1 2 3 4 5
3 more votes to show rating
add to favorites
launch autoscroll
font size
0
reset
guitar tuner
Autoscroll
slow
fast
+/-
esc
set tempo
stop
Help us to improve Ultimate-Guitar.com Take our survey!
×
Standard Tuning

Intro
G-------------------------2~--------------|
D-2----2----2~------5~----------2~----000-|
A-----------------------------------------|
E-----------------------------------------|

G-------------------------------------|
D-------------------22222222-22222222-|
A----------00000000-------------------|
E-33333333----------------------------|

G-------------------------------------|
D-------------------22222222-22222000-|
A----------00000000-------------------|
E-33333333----------------------------|

Verse
G-----------------------------|
D-----------------------------|
A--------00-------------------|
E-333----------000----00--000-|

G-----------------------------|
D-------------------------000-|
A--------00-------------------|
E-333----------000----0000----|

G-------------------------------------|
D-------------------------------------|
A----------00000000-------------------|
E-33333333----------00000000-00000000-|

G-----------------------------------------------|
D-------------------------000-------------------|
A--------00-------------------33333333-33333333-|
E-333----------000----0000----------------------|

Chorus
G-------------------------------------|
D----------------------------00000000-|
A----------33333333-------------------|
E-00000000----------33333333----------|

G----------------------------------------------|
D----------------------------00000000-00000000-|
A----------33333333----------------------------|
E-00000000----------33333333-------------------|

Pre-Verse
G----------22222222--------------------------------|
D-55555555----------22222222-22222222--------------|
A--------------------------------------------------|
E--------------------------------------------------|

G----------22222222--------------------------------|
D-55555555----------22222222-22222000--------------|
A--------------------------------------------------|
E--------------------------------------------------|

Verse (same as before)

Chorus
G-------------------------------------|
D----------------------------00000000-| x2
A----------33333333-------------------|
E-00000000----------33333333----------|

G-------------------------------------|
D-22222222-------------------00000000-|
A----------33333333-------------------|
E-------------------33333333----------|

G-------------------------------------------------------|
D-22222222-------------------00000000-00000000-00000000-|
A----------33333333-------------------------------------|
E-------------------33333333----------------------------|

Bridge (it goes part 1-2-1-2-1-1-1-2)

Part 1
G-------------------------------------|
D-55555555-22222222-------------------|
A-------------------33333333-33333333-|
E-------------------------------------|

Part 2
G-------------------55555555-55555555-|
D-55555555-22224455-------------------|
A-------------------------------------|
E-------------------------------------|

Chorus (no singing and different guitar parts)
G-------------------------------------|
D----------------------------00000000-| x2
A----------33333333-------------------|
E-00000000----------33333333----------|

G-------------------------------------|
D-----------45-45-5----------00000000-|
A----------3--3--3--------------------|
E-00000000----------33333333----------|

G----------------------------------------------|
D-----------4542-------------00000000-00000000-|
A----------3----532----------------------------|
E-00000000----------33333333-------------------|

Ending
G---------2~-----------------------------2~------|
D-5~------------2-----2----2~-----5~----------2~-|
A------------------------------------------------|
E---------------------------------------------0~-|
Suggest correction
Give kudos to tab author, rate the tab!
1 2 3 4 5
comments
print report bad tab
guest
You may want to rate the tab now too:
select rating
Wanna post a correction for this tab? Suggest correction