Oops, an error
Loading. Please wait.

Sadie ukulele

version 3
version 3

Whole song

Interactive

129 views 1 this week
no commentswrite comment
1 2 3 4 5
2 more votes to show rating
add to favorites
×
Save as Personal and add changes to this tab that will be seen only by you. Learn more ›
×
You can save this tab as Personal to edit and correct it or add notes. All changes will be seen only by you. Learn more »
launch autoscroll
font size
0
reset
transpose
0
reset
display chords
guitar tuner
edit
Autoscroll
slow
fast
+/-
esc
set tempo
stop
Author
Strumming
There is no strumming pattern for this song yet. and get +5 IQ
Hey y'all, this is a ukulele tab for Sadie, seeing how Ultimate Guitar is now fitting
ukuleles into the website, I thought I'd try a tab, hope you enjoy :)


Intro/Verse:

A|-----------------0-0-0-0-0-0-0-0----------------------------------------------|
E|-7-7-7-8-8-8-7-8-7-7-7-8-8-8-7-8-7-7-7-7-7-7-7-7-8-8-8-8-8-7-7-7--------------|
C|---------------------------------4-4-4-4-4-4-4-4-4-4-4-4-4-4-4-4--------------|
G|-0-0-0-0-0-0-0-0--------------------------------------------------------------|

A|-----------------0-0-0-0-0-0-0-0----------------------------------------------|
E|-7-7-7-8-8-8-7-8-7-7-7-8-8-8-7-8-7-7-7-7-7-7-7-7-7-7-7-7-7-7-5-5--------------|
C|---------------------------------4-4-4-4-4-4-4-4-4-4-4-4-4-4-2-2--------------|
G|-0-0-0-0-0-0-0-0--------------------------------------------------------------|

and if you want to put it in:

A|-9-10-9-10-9-10--------------|
E|-----------------------------|
C|-----------------------------|
G|-----------------------------|

You're on your own my little nightmare you cannot stay here
It's far too bright for you
If they attack you just lay there,
Play dead dear, it's your only hope of pulling through.

And seconds they seem like a lifetime.
A dream, recurring, a dream that can't come true.
And they'll pin it all on you
after all you've been put through.


Chorus:

   Em  C   G   D
A|-2---3---2---0-|
E|-3---0---3---2-|
C|-4---0---2---2-|
G|-4---0---0---2-|

Em              C                  G                   D
"Sadie G. she's crazy see?" That's what the white-coats say
       Em               C            G        D
Now Ms Susan A., you're losing every opportunity to put us all away.


Verse:

A|-----------------0-0-0-0-0-0-0-0----------------------------------------------|
E|-7-7-7-8-8-8-7-8-7-7-7-8-8-8-7-8-7-7-7-7-7-7-7-7-8-8-8-8-8-7-7-7--------------|
C|---------------------------------4-4-4-4-4-4-4-4-4-4-4-4-4-4-4-4--------------|
G|-0-0-0-0-0-0-0-0--------------------------------------------------------------|

A|-----------------0-0-0-0-0-0-0-0----------------------------------------------|
E|-7-7-7-8-8-8-7-8-7-7-7-8-8-8-7-8-7-7-7-7-7-7-7-7-7-7-7-7-7-7-5-5--------------|
C|---------------------------------4-4-4-4-4-4-4-4-4-4-4-4-4-4-2-2--------------|
G|-0-0-0-0-0-0-0-0--------------------------------------------------------------|

and, again, if you want to:

A|-9-10-9-10-9-10--------------|
E|-----------------------------|
C|-----------------------------|
G|-----------------------------|

Go run along my little nightmare.
Your job is done here.
You've scared them all to death.
If they revive them just sit there.
Just smile dear. Make them thankful for every breath.

The sentence may seem like a lifetime,
a scream, that curdling the blood they found on you.
And your knives and clothing too.
Charlie's broken .22

Chorus:
Em              C                  G                   D
"Sadie G. she's crazy see?" That's what the whitecoats say
       Em               C            G        D
Now Ms Susan A., you're losing every opportunity to put us all away

          Em                 C                  G              D
Well they found you and they shipped you up the river the same way
        Em                   C                    G                D
But you bound and gagged you shot and stabbed you tried to set 'em free

But they've thrown away the key


Bridge:

A|----10---------------10----10-13---13~-----9-10-9-10-9-10-|
E|-10----7---7~-----------10--------------------------------|
C|----------------------------------------------------------|
G|----------------------------------------------------------|

G      Em      C
Whoooooooooooooooaaa! (x4)

(sorry if this is a bit off, can only figger this out technically, my ukulele 
doesn't go this high)

A|----10----------|-----14-14-12-12-11-11-|
E|-------10-8-7---|x4---------------------|x3
C|-7--------------|-----------------------|
G|----------------|-----------------------|

A|-14-14-11-11-12-12-12-12-12-12------9-10-9-10-9-10-|
E|---------------------------------12----------------|
C|---------------------------------------------------|
G|---------------------------------------------------|

Outro:

A|-----------------0-0-0-0-0-0-0-0----------------------------------------------|
E|-7-7-7-8-8-8-7-8-7-7-7-8-8-8-7-8-7-7-7-7-7-7-7-7-8-8-8-8-8-7-7-7--------------|
C|---------------------------------4-4-4-4-4-4-4-4-4-4-4-4-4-4-4-4--------------|
G|-0-0-0-0-0-0-0-0--------------------------------------------------------------|

A|-----------------0-0-0-0-0-0-0-0----------------|
E|-7-7-7-8-8-8-7-8-7-7-7-8-8-8-7-8-7--------------|
C|---------------------------------4--------------|
G|-0-0-0-0-0-0-0-0--------------------------------|

Thanks, hope you like :)

            
            
Suggest correction
Creating personal tab
Creating personal tab
You can edit any tab online and save it as your Personal.

You can edit, replace or remove any tab part or add personal notes – all changes will be seen only by you.

Personal tabs can be accessed anytime from any device, even offline.
Learn more »
Give kudos to tab author, rate the tab!
1 2 3 4 5
comments
print report bad tab
guest
You may want to rate the tab now too:
select rating
Wanna post a correction for this tab? Suggest correction