Oops, an error
Loading. Please wait.

Sadie Tab

version 4
version 4

Whole song

Interactive

604 views 1 this week
no commentswrite comment
1 2 3 4 5
3 more votes to show rating
add to favorites
launch autoscroll
font size
0
reset
how to read this tab
guitar tuner
Autoscroll
slow
fast
+/-
esc
set tempo
stop
Help us to improve Ultimate-Guitar.com Take our survey!
×
Author
Difficulty
novice
-------------------------------------------------------------------------------
                             Sadie - Alkaline Trio
-------------------------------------------------------------------------------
Tabbed by : Strum87
Email     : jason_ho222@hotmail.com

I think this is right. Mail me any questions or corrections.

All of the Guitar 2 parts sound good if you use echo and a slow wah effect.

Tuning         : eBGDAE
Time Signature : 4/4
 
  Intro

  Guitar 1
e|----------------|----------------|----------------|----------------|
B|----------------|----------------|----------------|----------------|
G|----------------|----------------|----------------|----------------|
D|-9-9-9101010-910|-9-9-9101010-910|-9-9-9-9-9-9-9-9|1010101010-9-9-9|
A|1010101010101010|-0-0-0-0-0-0-0-0|-7-7-7-7-7-7-7-7|-7-7-7-7-7-7-7-7|
E|----------------|----------------|----------------|----------------|

e|----------------|----------------|----------------|----------------|
B|----------------|----------------|----------------|----------------|
G|----------------|----------------|----------------|----------------|
D|-9-9-9101010-910|-9-9-9101010-910|-9-9-9-9-9-9-9-9|-9-9-9-9-9-7-7-7|
A|1010101010101010|-0-0-0-0-0-0-0-0|-7-7-7-7-7-7-7-7|-7-7-7-7-7-5-5-5|
E|----------------|----------------|----------------|----------------|
                                                    |
                                     Guitar 3      e|---------------------|
                                    (Echo & Reverb)B|---------------------|
                                                   G|----11h12p11h12p11h12|
                                                   D|---------------------|
                                                   A|---------------------|
                                                   E|---------------------|
  <- - - - - - - - - - - - - - play 2x - - - - - - - - - - - - - - ->

  Verse 1

  Guitar 1
e|----------------|----------------|----------------|----------------|
B|----------------|----------------|----------------|----------------|
G|----------------|----------------|----------------|----------------|
D|-9-9-9101010-910|-9-9-9101010-910|-9-9-9-9-9-9-9-9|-9-9-9-9-9-9-9-9|
A|1010101010101010|-0-0-0-0-0-0-0-0|-7-7-7-7-7-7-7-7|-7-7-7-7-7-7-7-7|
E|----------------|----------------|----------------|----------------|

e|----------------|----------------|----------------|----------------|
B|----------------|----------------|----------------|----------------|
G|----------------|----------------|----------------|----------------|
D|-9-9-9101010-910|-9-9-9101010-910|-9-9-9-9-9-9-9-9|-9-9-9-9-9-7-7-7|
A|1010101010101010|-0-0-0-0-0-0-0-0|-7-7-7-7-7-7-7-7|-7-7-7-7-7-5-5-5|
E|----------------|----------------|----------------|----------------|

e|----------------|----------------|----------------|----------------|
B|----------------|----------------|----------------|----------------|
G|----------------|----------------|----------------|----------------|
D|-9-9-9101010-910|-9-9-9101010-910|-9-9-9-9-9-9-9-9|-9-9-9-9-9-9-9-9|
A|1010101010101010|-0-0-0-0-0-0-0-0|-7-7-7-7-7-7-7-7|-7-7-7-7-7-7-7-7|
E|----------------|----------------|----------------|----------------|
                                                    |
                                     Guitar 3      e|---------------------|
                                    (Echo & Reverb)B|---------------------|
                                                   G|----11h12p11h12p11h12|
                                                   D|---------------------|
                                                   A|---------------------|
                                                   E|---------------------|
  Guitar 1
e|----------------|----------------|----------------|----------------|
B|----------------|----------------|----------------|----------------|
G|----------------|----------------|----------------|----------------|
D|-9-9-9101010-910|-9-9-9101010-910|-9-9-9-9-9-9-9-9|-9-9-9-9-9-7-7-7|
A|1010101010101010|-0-0-0-0-0-0-0-0|-7-7-7-7-7-7-7-7|-7-7-7-7-7-5-5-5|
E|----------------|----------------|----------------|----------------|

  Pre-Chorus

e|----------------|----------------|
B|----------------|----------------|
G|----------------|----------------|
D|-5-5-5-5-5-5-5-5|-5-5-5-5-5-5-5-5|
A|-3-3-3-3-3-3-3-3|-3-3-3-3-3-3-3-3|
E|----------------|----------------|
   . . . . . . . .  . . . . . Gradualy release
               <- - - - - - > from between the arrows.    
  Chorus 1 
 
e|-----------------|-----------------|-----------------|-----------------|
B|-----------------|-----------------|-----------------|-----------------|
G|-----------------|-5-5-5-5-5-5-5-5-|-----------------|-7-7-7-7-7-7-7-7-|
D|-2-2-2-2-2-2-2-2-|-5-5-5-5-5-5-5-5-|-5-5-5-5-5-5-5-5-|-7-7-7-7-7-7-7-7-|
A|-2-2-2-2-2-2-2-2-|-3-3-3-3-3-3-3-3-|-5-5-5-5-5-5-5-5-|-5-5-5-5-5-5-5-5-|
E|-0-0-0-0-0-0-0-0-|-----------------|-3-3-3-3-3-3-3-3-|-----------------|
  <- - - - - - - - - - - - - - - play 2x - - - - - - - - - - - - - - - ->

  Re-Intro
 
  Guitar 1
e|----------------|----------------|----------------|----------------|
B|----------------|----------------|----------------|----------------|
G|----------------|----------------|----------------|----------------|
D|-9-9-9101010-910|-9-9-9101010-910|-9-9-9-9-9-9-9-9|1010101010-9-9-9|
A|1010101010101010|-0-0-0-0-0-0-0-0|-7-7-7-7-7-7-7-7|-7-7-7-7-7-7-7-7|
E|----------------|----------------|----------------|----------------|
  
  Guitar 2
e|----------------|----------------|----------------|----------------|
B|----------------|----------------|----------------|----------------|
G|----------------|----------------|----------------|----------------|
D|-5-5-5-5-5-5-5-5|-5/7-7-7-7-7-7-7|-7/9-9-9-9-9-9-9|-9-9-9-9-9-9-9-9|
A|----------------|----------------|----------------|----------------|
E|----------------|----------------|----------------|----------------|
                                                    |
                                     Guitar 3      e|---------------------|
                                    (Echo & Reverb)B|---------------------|
                                                   G|----11h12p11h12p11h12|
                                                   D|---------------------|
                                                   A|---------------------|
                                                   E|---------------------|

  Guitar 1
e|----------------|----------------|----------------|----------------|
B|----------------|----------------|----------------|----------------|
G|----------------|----------------|----------------|----------------|
D|-9-9-9101010-910|-9-9-9101010-910|-9-9-9-9-9-9-9-9|-9-9-9-9-9-7-7-7|
A|1010101010101010|-0-0-0-0-0-0-0-0|-7-7-7-7-7-7-7-7|-7-7-7-7-7-5-5-5|
E|----------------|----------------|----------------|----------------|

  Guitar 2
e|----------------|----------------|----------------|----------------|
B|----------------|----------------|----------------|----------------|
G|----------------|----------------|----------------|----------------|
D|-5-5-5-5-5-5-5-5|-7-7-7-7h9p7\5h7|p5\2-2-2-2-2-2-2|-2-2-2-2-2-0-0-0|
A|----------------|----------------|----------------|----------------|
E|----------------|----------------|----------------|----------------|
                                                    |
                                     Guitar 3      e|---------------------|
                                    (Echo & Reverb)B|---------------------|
                                                   G|----11h12p11h12p11h12|
                                                   D|---------------------|
                                                   A|---------------------|
                                                   E|---------------------|

  Verse 2

  Guitar 1
e|----------------|----------------|----------------|----------------|
B|----------------|----------------|----------------|----------------|
G|----------------|----------------|----------------|----------------|
D|-9-9-9101010-910|-9-9-9101010-910|-9-9-9-9-9-9-9-9|-9-9-9-9-9-9-9-9|
A|1010101010101010|-0-0-0-0-0-0-0-0|-7-7-7-7-7-7-7-7|-7-7-7-7-7-7-7-7|
E|----------------|----------------|----------------|----------------|

e|----------------|----------------|----------------|----------------|
B|----------------|----------------|----------------|----------------|
G|----------------|----------------|----------------|----------------|
D|-9-9-9101010-910|-9-9-9101010-910|-9-9-9-9-9-9-9-9|-9-9-9-9-9-7-7-7|
A|1010101010101010|-0-0-0-0-0-0-0-0|-7-7-7-7-7-7-7-7|-7-7-7-7-7-5-5-5|
E|----------------|----------------|----------------|----------------|

e|----------------|----------------|----------------|----------------|
B|----------------|----------------|----------------|----------------|
G|----------------|----------------|----------------|----------------|
D|-9-9-9101010-910|-9-9-9101010-910|-9-9-9-9-9-9-9-9|-9-9-9-9-9-9-9-9|
A|1010101010101010|-0-0-0-0-0-0-0-0|-7-7-7-7-7-7-7-7|-7-7-7-7-7-7-7-7|
E|----------------|----------------|----------------|----------------|
                                                    |
                                     Guitar 3      e|---------------------|
                                    (Echo & Reverb)B|---------------------|
                                                   G|----11h12p11h12p11h12|
                                                   D|---------------------|
                                                   A|---------------------|
                                                   E|---------------------|
  Guitar 1
e|----------------|----------------|----------------|----------------|
B|----------------|----------------|----------------|----------------|
G|----------------|----------------|----------------|----------------|
D|-9-9-9101010-910|-9-9-9101010-910|-9-9-9-9-9-9-9-9|-9-9-9-9-9-7-7-7|
A|1010101010101010|-0-0-0-0-0-0-0-0|-7-7-7-7-7-7-7-7|-7-7-7-7-7-5-5-5|
E|----------------|----------------|----------------|----------------|

  Pre-Chorus

e|----------------|----------------|
B|----------------|----------------|
G|----------------|----------------|
D|-5-5-5-5-5-5-5-5|-5-5-5-5-5-5-5-5|
A|-3-3-3-3-3-3-3-3|-3-3-3-3-3-3-3-3|
E|----------------|----------------|
   . . . . . . . .  . . . . . Gradualy release
               <- - - - - - > from between the arrows.    
  Chorus 2 
 
e|-----------------|-----------------|-----------------|-----------------|
B|-----------------|-----------------|-----------------|-----------------|
G|-----------------|-5-5-5-5-5-5-5-5-|-----------------|-7-7-7-7-7-7-7-7-|
D|-2-2-2-2-2-2-2-2-|-5-5-5-5-5-5-5-5-|-5-5-5-5-5-5-5-5-|-7-7-7-7-7-7-7-7-|
A|-2-2-2-2-2-2-2-2-|-3-3-3-3-3-3-3-3-|-5-5-5-5-5-5-5-5-|-5-5-5-5-5-5-5-5-|
E|-0-0-0-0-0-0-0-0-|-----------------|-3-3-3-3-3-3-3-3-|-----------------|
  <- - - - - - - - - - - - - - - play 4x - - - - - - - - - - - - - - - ->

  Pre-Breakdown

  Guitar 1
e|-----------------|-----------------|
B|-----------------|-----------------|
G|-7-7-7-7-7-7-7-7-|-7-7-7-7-7-7-7-7-|
D|-7-7-7-7-7-7-7-7-|-7-7-7-7-7-7-7-7-|
A|-5-5-5-5-5-5-5-5-|-5-5-5-5-5-5-5-5-|
E|-----------------|-----------------|

  Breakdown

  Guitar 2
e|-------------------------------|-------------------------------|
B|-----8-------------------------|-------------------------------|
G|-7-------7---------------------|-------------------------------|
D|-------------9-~-~-~-~-~-~-~-~-|-9-~-~-~-~-~-~-~-~-~-~-~-~-~-~-|
A|-------------------------------|-------------------------------|
E|-------------------------------|-------------------------------|


e|-------------7-~-~-~-~-~-~-~-~-|-7-~-~-~-~-~-~-~-~-~-~-~-~-~-~-|
B|-8-------8---------------------|-------------------------------|
G|-----7-------------------------|-------------------------------|
D|-------------------------------|-------------------------------|
A|-------------------------------|-------------------------------|
E|-------------------------------|-------------------------------|
                                                   |
                                    Guitar 3      e|---------------------|
                                   (Echo & Reverb)B|---------------------|
                                                  G|----11h12p11h12p11h12|
                                                  D|---------------------|
                                                  A|---------------------|
                                                  E|---------------------|

  Bridge

  Guitar 1
e|-----------------|-----------------|-----------------|-----------------|
B|-----------------|-----------------|-----------------|-----------------|
G|-----------------|-----------------|-5-5-5-5-5-5-5-5-|-5-5-5-5-5-5-5-5-|
D|-5-5-5-5-5-5-5-5-|-2-2-2-2-2-2-2-2-|-5-5-5-5-5-5-5-5-|-5-5-5-5-5-5-5-5-|
A|-5-5-5-5-5-5-5-5-|-2-2-2-2-2-2-2-2-|-3-3-3-3-3-3-3-3-|-3-3-3-3-3-3-3-3-|
E|-3-3-3-3-3-3-3-3-|-0-0-0-0-0-0-0-0-|-----------------|-----------------|
  <- - - - - - - - - - - - - - - play 4x - - - - - - - - - - - - - - - ->

  Solo

  Guitar 1
e|-----------------|-----------------|-----------------|-----------------|
B|-----------------|-----------------|-----------------|-----------------|
G|-----------------|-5-5-5-5-5-5-5-5-|-----------------|-7-7-7-7-7-7-7-7-|
D|-2-2-2-2-2-2-2-2-|-5-5-5-5-5-5-5-5-|-5-5-5-5-5-5-5-5-|-7-7-7-7-7-7-7-7-|
A|-2-2-2-2-2-2-2-2-|-3-3-3-3-3-3-3-3-|-5-5-5-5-5-5-5-5-|-5-5-5-5-5-5-5-5-|
E|-0-0-0-0-0-0-0-0-|-----------------|-3-3-3-3-3-3-3-3-|-----------------|

  Guitar 2
e|-----------------|-----------------|-----------------|-----------------|
B|-------8---------|-----------------|-------8---------|-----------------|
G|---0-------0---0-|-7---7-5---5-4h5-|---0-------0---0-|-7---7-5---5-4h5-|
D|-5---5---5---5---|---5-----5-------|-5---5---5---5---|---5-----5-------|
A|-----------------|-----------------|-----------------|-----------------|
E|-----------------|-----------------|-----------------|-----------------|

  Guitar 1
e|-----------------|-----------------|-----------------|-----------------|
B|-----------------|-----------------|-----------------|-----------------|
G|-----------------|-5-5-5-5-5-5-5-5-|-----------------|-7-7-7-7-7-7-7-7-|
D|-2-2-2-2-2-2-2-2-|-5-5-5-5-5-5-5-5-|-5-5-5-5-5-5-5-5-|-7-7-7-7-7-7-7-7-|
A|-2-2-2-2-2-2-2-2-|-3-3-3-3-3-3-3-3-|-5-5-5-5-5-5-5-5-|-5-5-5-5-5-5-5-5-|
E|-0-0-0-0-0-0-0-0-|-----------------|-3-3-3-3-3-3-3-3-|-----------------|

  Guitar 2
e|-----------------|-----------------|-----------------|-----------------|
B|-------8---------|-----------------|-------8---------|-----------------|
G|---0-------0---0-|-7---7-5---5-4h5-|---0-------0---0-|-7---7-5---5-4h5-|
D|-5---5---5---5---|---5-----5-------|-5---5---5---5---|---5-----5-------|
A|-----------------|-----------------|-----------------|-----------------|
E|-----------------|-----------------|-----------------|-----------------|

  Guitar 1
e|-----------------|-----------------|-----------------|-----------------|
B|-----------------|-----------------|-----------------|-----------------|
G|-----------------|-5-5-5-5-5-5-5-5-|-----------------|-7-7-7-7-7-7-7-7-|
D|-2-2-2-2-2-2-2-2-|-5-5-5-5-5-5-5-5-|-5-5-5-5-5-5-5-5-|-7-7-7-7-7-7-7-7-|
A|-2-2-2-2-2-2-2-2-|-3-3-3-3-3-3-3-3-|-5-5-5-5-5-5-5-5-|-5-5-5-5-5-5-5-5-|
E|-0-0-0-0-0-0-0-0-|-----------------|-3-3-3-3-3-3-3-3-|-----------------|

  Guitar 2
e|10--10---8-~-~-~-|-~-~-~-~-~-~-~-~-|10--10---8-~-7-~-|-~-~-~-~-~-~-~-~-|
B|---8---8-8-~-~-~-|-~-~-~-~-~-~-~-~-|---8---8-8-~-8-~-|-~-~-~-~-~-~-~-~-|
G|-----------------|-----------------|-----------------|-----------------|
D|-----------------|-----------------|-----------------|-----------------|
A|-----------------|-----------------|-----------------|-----------------|
E|-----------------|-----------------|-----------------|-----------------|

  Guitar 1
e|-----------------|-----------------|-----------------|-----------------|
B|-----------------|-----------------|-----------------|-----------------|
G|-----------------|-5-5-5-5-5-5-5-5-|-----------------|-7-7-7-7-7-7-7-7-|
D|-2-2-2-2-2-2-2-2-|-5-5-5-5-5-5-5-5-|-5-5-5-5-5-5-5-5-|-7-7-7-7-7-7-7-7-|
A|-2-2-2-2-2-2-2-2-|-3-3-3-3-3-3-3-3-|-5-5-5-5-5-5-5-5-|-5-5-5-5-5-5-5-5-|
E|-0-0-0-0-0-0-0-0-|-----------------|-3-3-3-3-3-3-3-3-|-----------------|

  Guitar 2
e|10--10---8-~-~-~-|-~-~-~-~-~-~-~-~-|10----------10-~-|-----------------|
B|---8---8-8-~-~-~-|-~-~-~-~-~-~-~-~-|---8---8---8-~-~-|-8-~-~-~-~-~-~-~-|
G|-----------------|-----------------|-----------------|-----------------|
D|-----------------|-----------------|-----------------|-----------------|
A|-----------------|-----------------|-----------------|-----------------|
E|-----------------|-----------------|-----------------|-----------------|

  Guitar 1
e|-----------------|-----------------|
B|-----------------|-----------------|
G|-7-7-7-7-7-7-7-7-|-7-7-7-7-7-7-7-7-|
D|-7-7-7-7-7-7-7-7-|-7-7-7-7-7-7-7-7-|
A|-5-5-5-5-5-5-5-5-|-5-5-5-5-5-5-5-5-|
E|-----------------|-----------------|

  Guitar 2
e|-----------------|-----------------|
B|---7-~-~-~-~-~-~-|-7-----8----10---|
G|-----------------|-----------------|
D|-----------------|-----------------|
A|-----------------|-----------------|
E|-----------------|-----------------|

  Outro

  Guitar 1
e|----------------|----------------|----------------|----------------|
B|----------------|----------------|----------------|----------------|
G|----------------|----------------|----------------|----------------|
D|-9-9-9101010-910|-9-9-9101010-910|-9-9-9-9-9-9-9-9|1010101010-9-9-9|
A|1010101010101010|-0-0-0-0-0-0-0-0|-7-7-7-7-7-7-7-7|-7-7-7-7-7-7-7-7|
E|----------------|----------------|----------------|----------------|

  Guitar 3 (Echo & Reverb)
e|----------------|----------------|----------------|----------------|
B|----------------|----------------|----------------|----------------|
G|11h12p11h12p11h12p11h12p11h12p11h12p11h12p11h12p11h12p11h12p11h12--|
D|----------------|----------------|----------------|----------------|
A|----------------|----------------|----------------|----------------|
E|----------------|----------------|----------------|----------------|
                          <- - - - - - - - - - fades out - - - - - ->
  Guitar 1
e|----------------|----------------|----------------|----------------|
B|----------------|----------------|----------------|----------------|
G|----------------|----------------|----------------|----------------|
D|-9-9-9101010-910|-9-9-9101010-910|-9--------------|----------------|
A|1010101010101010|-0-0-0-0-0-0-0-0|-7--------------|----------------|
E|----------------|----------------|----------------|----------------|
                            let ring - - - - - - - - - - - - - - - ->
                       
| /  slide up
| \  slide down
| h  hammer-on
| p  pull-off
| ~  vibrato
| .  palm mute
===============================================================================
Suggest correction
Give kudos to tab author, rate the tab!
1 2 3 4 5
comments
print report bad tab
guest
You may want to rate the tab now too:
select rating
Wanna post a correction for this tab? Suggest correction