Oops, an error
Loading. Please wait.

San Francisco Bass Tab

version 2
version 2

Whole song

1,664 views 6 this week
no commentswrite comment
1 2 3 4 5
1 last vote to show rating
add to favorites
launch autoscroll
font size
0
reset
guitar tuner
Autoscroll
slow
fast
+/-
esc
set tempo
stop
Help us to improve Ultimate-Guitar.com Take our survey!
×
Difficulty
intermediate
Intro
G:---------------------------------------------------------|
D:-------------66------------7-6-4---7-6-4---7-6-4---7-6-4-|
A:----66-77-99----66-77-99-0-------0-------0-------0-------|
E:-00------------------------------------------------------|

verse:
G:---------------------------------------------------------|
D:-------------------22-2\\-77-7---------------------------|
A:-----00-044-42h4p2-----------44-42h4-2-0-----------------|
E:-00-0----------------------------------------------------|

G:-------------------------9~--|-9h11-9h11-9h11-9h11-------|
D:-----------------------7-----|---------------------------|
A:------0000-4444-2222-0-------|---------------------------|
E:-0000------------------------|---------------------------|

Mid verse
G:---------------------------------------------------------|
D:---------------------------------------------------------|
A:------0000-4444-2222-7777-0000-4444-2222-----------------|
E:-0000----------------------------------------------------|

G:---------------------------------------------------------|
D:-------------------22-2\\-77-7---------------------------|
A:-----00-044-42h4p2-----------44-42h4-2-0-----------------|
E:-00-0----------------------------------------------------|

G:-------------------------9~--|-9h11-9h11-9h11-9h11-------|
D:-----------------------7-----|---------------------------|
A:------0000-4444-2222-0-------|---------------------------|
E:-0000------------------------|---------------------------|

chorus
G:---------------------------------------------------------|
D:------------------66--66---------------------------------|
A:--------------------66--66-2h4-2h4-2h4-2h4---------------|X2
E:-0000000000000000----------------------------------------|

G:----------------------------9~---------------------------|
D:----------------------------7~---------------------------|
A:----------44444444-22222222------------------------------|
E:-00000000------------------------------------------------|

post chorus
G:---9---9---9---9---9---9---9---9---9---9---9---9-9~------|
D:-7---7---7---7---7---7---7---7---7---7---7---7---7~------|
A:---------------------------------------------------------|
E:---------------------------------------------------------|
Intro
G:----------------------------------------------------------|
D:------------66------------7-6-4---7-6-4---7-6-4---7-6-4---|
A:---66-77-99----66-77-99-0-------0-------0-------0---------|
E:00--------------------------------------------------------|

verse:
G:--------------------------------------------------------|
D:------------------22-2\\-77-7---------------------------|
A:----00-044-42h4p2-----------44-42h4-2-0-----------------|
E:00-0----------------------------------------------------|

G:------------------------9~--|-9h11-9h11-9h11-9h11-------|
D:----------------------7-----|---------------------------|
A:-----0000-4444-2222-0-------|---------------------------|
E:0000------------------------|---------------------------|

Mid verse
G:--------------------------------------------------------|
D:--------------------------------------------------------|
A:-----0000-4444-2222-7777-0000-4444-2222-----------------|
E:0000----------------------------------------------------|

G:-------------------------------------------------------|
D:------------------22-2\\-77-7--------------------------|
A:----00-044-42h4p2-----------44-42h4-2-0----------------|
E:00-0---------------------------------------------------|

G:------------------------9~--|-9h11-9h11-9h11-9h11-------|
D:----------------------7-----|---------------------------|
A:-----0000-4444-2222-0-------|---------------------------|
E:0000------------------------|---------------------------|

Verse end
G:---------------------------------------------------------------9~---|
D:--------------------------------------------------------------7-----|
A:-----0000-4444-2222-7777-0000-4444-2222------0000-4444-2222-0-------|
E:0000------------------------------------0000------------------------|
chorus
G:--------------------------------------------------------|
D:-----------------66--66---------------------------------|
A:-------------------66--66-2h4-2h4-2h4-2h4---------------|X2
E:0000000000000000----------------------------------------|

G:---------------------------9~---------------------------|
D:---------------------------7~---------------------------|
A:---------44444444-22222222------------------------------|
E:00000000------------------------------------------------|

post chorus
G:--9---9---9---9---9---9---9---9---9---9---9---9-9~------|
D:7---7---7---7---7---7---7---7---7---7---7---7---7~------|
A:--------------------------------------------------------|
E:--------------------------------------------------------|
chorus
G:--------------------------------------------------------|
D:-----------------66--66---------------------------------|
A:-------------------66--66-2h4-2h4-2h4-2h4---------------|X2
E:0000000000000000----------------------------------------|

G:---------------------------9~---------------------------|
D:---------------------------7~---------------------------|
A:---------44444444-22222222------------------------------|
E:00000000------------------------------------------------|

outro
G:---------------------------------------|
D:---------------------------------------|
A:0~---0~---0~---0~---0~-----------------|
E:-------------------------0~------------|
Suggest correction
Give kudos to tab author, rate the tab!
1 2 3 4 5
comments
print report bad tab
guest
You may want to rate the tab now too:
select rating
Wanna post a correction for this tab? Suggest correction