Oops, an error
Loading. Please wait.

San Francisco Tab

version 2
version 2

Whole song

3,707 views 18 this week
2 commentsread comments
1 2 3 4 5
excellent!
x 5
add to favorites
launch autoscroll
font size
0
reset
how to read this tab
guitar tuner
Autoscroll
slow
fast
+/-
esc
set tempo
stop
Help us to improve Ultimate-Guitar.com Take our survey!
×
Author
Artist: Alkaline Trio
Song: San Francisco
Album: Goddamnit

One of the best songs by the Trio. Enjoy.

INTRO 1:
E -------------------------------------------------------------------------|
B -------------------------------------------------------------------------|
G -------------------------------------------------------------------------|
D ------------------------------------6-6-6-6-6-6-6-6-7-7-7-7-7-7-7-7------|
A --7-7-7-7-7-7-7-7--7-7-7-9-9-11-11--0-0-0-0-0-0-0-0-0-0-0-0-0-0-0-0------|
E --0-0-0-0-0-0-0-0--0-0-0-0-0-0--0----------------------------------------|

E -------------------------------------------------------------------------|
B -------------------------------------------------------------------------|
G -------------------------------------------------------------------------|
D ------------------------------------6-6-6-6-6-9-6-7-(let ring)-----------|
A --7-7-7-7-7-7-7-7--7-7-7-9-9-11-11--0-0-0-0-0-0-0-0----------------------|
E --0-0-0-0-0-0-0-0--0-0-0-0-0-0--0----------------------------------------|

INTRO 2: x2
E -------------------------------------------------------------------------|
B -------------------------------------------------------------------------|
G --9-9-9-9-9-9-9-9--9-9--11-11-13-13--9-9-9-9-9-9-9-9-9-9-9-9-9-9-9-9-----|
D --9-9-9-9-9-9-9-9--x-x--x--x--x--x---6-6-6-6-6-6-6-6-7-7-7-7-7-7-7-7-----|
A --7-7-7-7-7-7-7-7--7-7--9--9--11-11--------------------------------------|
E -------------------------------------------------------------------------|

E -------------------------------------------------------------------------|
B -------------------------------------------------------------------------|
G --9-9-9-9-9-9-9-9--9-9--11-11-13-13--9-9-9-9-9-9-9-9-9-9-9-9-11-11-11----|
D --9-9-9-9-9-9-9-9--x-x--x--x--x--x---6-6-6-6-6-6-6-6-7-7-7-7-x--x--x-----|
A --7-7-7-7-7-7-7-7--7-7--9--9--11-11--------------------------9--9--9-----|
E -------------------------------------------------------------------------|

VERSE:
E -------------------------------------------------------------------------|
B -------------------------------------------------------------------------|
G -----------------------------------------9-------------------------------|
D ------9------2------6------4------9------9------2------4-----------------|
A ------9------2------6------4------9--7-7-7------2------4-----------------|
E --7-7-7--0-0-0--4-4-4--2-2-2--7-7-7---------4-4-4--2-2-2-----------------|
    x x    x x    x x    x x     x x   x x    x x    x x

E -------------------------------------------------------------------------|
B -------------------------------------------------------------------------|
G -------------------------------------------------------------------------|
D ------9------2------6------4--2------------------------------------------|
A ------9------2------6------4--2-(let ring)-------------------------------|
E --7-7-7--0-0-0--4-4-4--2-2-2--0------------------------------------------|
    x x    x x    x x    x x

INTERLUDE:
E -------------------------------------------------------------------------|
B -------------------------------------------------------------------------|
G --9-9-9--2-2-2--6-6-6--4-4-4--9-9-9--2-2-2--6-6-6--4-4-4-----------------|
D --9-9-9--2-2-2--6-6-6--4-4-4--9-9-9--2-2-2--6-6-6--4-4-4-----------------|
A --7-7-7--0-0-0--4-4-4--2-2-2--7-7-7--0-0-0--4-4-4--2-2-2-----------------|
E -------------------------------------------------------------------------|

VERSE:
E -------------------------------------------------------------------------|
B -------------------------------------------------------------------------|
G -----------------------------------------9-------------------------------|
D ------9------2------6------4------9------9------2------4-----------------|
A ------9------2------6------4------9--7-7-7------2------4-----------------|
E --7-7-7--0-0-0--4-4-4--2-2-2--7-7-7---------4-4-4--2-2-2-----------------|
    x x    x x    x x    x x     x x   x x    x x    x x

E -------------------------------------------------------------------------|
B -------------------------------------------------------------------------|
G -------------------------------------------------------------------------|
D ------9------2------6------4--2------------------------------------------|
A ------9------2------6------4--2-(let ring)-------------------------------|
E --7-7-7--0-0-0--4-4-4--2-2-2--0------------------------------------------|
    x x    x x    x x    x x

CHORUS:
E ----------------------------------------------------------------------|
B ----------------------------------------------------------------------|
G --9-9-9-9-9-9-9-9-9-9-9-9-8-8-8-8-----------------4-4-4-4-4-4-4-4-----|
D --9-9-9-9-9-9-9-9-x-x-x-x-x-x-x-x-6-6-6-6-6-6-6-6-4-4-4-4-4-4-4-4-----|(x2)
A --7-7-7-7-7-7-7-7-7-7-7-7-6-6-6-6-6-6-6-6-6-6-6-6-2-2-2-2-2-2-2-2-----|
E ----------------------------------4-4-4-4-4-4-4-4---------------------|

E -------------------------------------------------------------------------|
B -------------------------------------------------------------------------|
G --9-9-9-9-9-9-9--6-6-6-6-6-6-6--4-4-4-4-4-4-4--2-------------------------|
D --9-9-9-9-x-x-x--6-6-6-6-x-x-x--4-4-4-4-x-x-x--2-------------------------|
A --7-7-7-7-7-7-7--4-4-4-4-4-4-4--2-2-2-2-2-2-2--0-------------------------|
E -------------------------------------------------------------------------|

E -------------------------------------------------------------------------|
B -------------------------------------------------------------------------|
G -------------------------------------------------------------------------|
D -------------------------------------------------------------------------|
A --2-2-2-4p-2-2-2-2-4p-2-2-2-2-4p-2-2-2-2-2\4\7---------------------------|
E --------0----------0----------0------------------------------------------|
    x x x    x x x x    x x x x    x x x x

INTERLUDE 2:
E -------------------------------------------------------------------------|
B -------------------------------------------------------------------------|
G --9-9-9-9-9-9-9-9--9-9--11-11-13-13--9-9-9-9-9-9-9-9-9-9-9-9-9-9-9-9-----|
D --9-9-9-9-9-9-9-9--x-x--x--x--x--x---6-6-6-6-6-6-6-6-7-7-7-7-7-7-7-7-----|
A --7-7-7-7-7-7-7-7--7-7--9--9--11-11--------------------------------------|
E -------------------------------------------------------------------------|

E -------------------------------------------------------------------------|
B -------------------------------------------------------------------------|
G --9-9-9-9-9-9-9-9--9-9--11-11-13-13--9-9-9-9-9-9-9-9-9-9-9-9-11-11-11----|
D --9-9-9-9-9-9-9-9--x-x--x--x--x--x---6-6-6-6-6-6-6-6-7-7-7-7-x--x--x-----|
A --7-7-7-7-7-7-7-7--7-7--9--9--11-11--------------------------9--9--9-----|
E -------------------------------------------------------------------------|

VERSE:
E -------------------------------------------------------------------------|
B -------------------------------------------------------------------------|
G -----------------------------------------9-------------------------------|
D ------9------2------6------4------9------9------2------4-----------------|
A ------9------2------6------4------9--7-7-7------2------4-----------------|
E --7-7-7--0-0-0--4-4-4--2-2-2--7-7-7---------4-4-4--2-2-2-----------------|
    x x    x x    x x    x x    x x    x x    x x    x x

E -------------------------------------------------------------------------|
B -------------------------------------------------------------------------|
G -------------------------------------------------------------------------|
D ------9------2------6------4--2------------------------------------------|
A ------9------2------6------4--2-(let ring)-------------------------------|
E --7-7-7--0-0-0--4-4-4--2-2-2--0------------------------------------------|
    x x    x x    x x    x x

INTERLUDE 3:
E -------------------------------------------------------------------------|
B -------------------------------------------------------------------------|
G --9-9-9-9-9-9-9-9-9-9-8-8-8-9-9-9-9-9-9-9-9-9-9-8-8-8----------------9/--|
D --x-x-x-x-x-x-x-x-x-x-x-x-x-x-x-x-x-x-x-x-x-x-x-x-x-x--2-(let ring)--x---|
A --7-7-7-7-7-7-7-7-7-7-6-6-6-7-7-7-7-7-7-7-7-7-7-6-6-6--2-------------7/--|
E -------------------------------------------------------0-----------------|

VERSE 2:
E -------------------------------------------------------------------------|
B -------------------------------------------------------------------------|
G ------------------------------9------------------------------------------|
D ------------------------------9-(let ring)-------------------------------|
A --6h7-h7-h7-h7-6h7-h7-h7-h7---7------------------------------------------|
E -------------------------------------------------------------------------|

CHORUS:
E ----------------------------------------------------------------------|
B ----------------------------------------------------------------------|
G --9-9-9-9-9-9-9-9-9-9-9-9-8-8-8-8-----------------4-4-4-4-4-4-4-4-----|
D --9-9-9-9-9-9-9-9-x-x-x-x-x-x-x-x-6-6-6-6-6-6-6-6-4-4-4-4-4-4-4-4-----|(x2)
A --7-7-7-7-7-7-7-7-7-7-7-7-6-6-6-6-6-6-6-6-6-6-6-6-2-2-2-2-2-2-2-2-----|
E ----------------------------------4-4-4-4-4-4-4-4---------------------|

E -------------------------------------------------------------------------|
B -------------------------------------------------------------------------|
G --9-9-9-9-9-9-9--6-6-6-6-6-6-6--4-4-4-4-4-4-4--2-------------------------|
D --9-9-9-9-x-x-x--6-6-6-6-x-x-x--4-4-4-4-x-x-x--2-------------------------|
A --7-7-7-7-7-7-7--4-4-4-4-4-4-4--2-2-2-2-2-2-2--0-------------------------|
E -------------------------------------------------------------------------|

E -------------------------------------------------------------------------|
B -------------------------------------------------------------------------|
G -------------------------------------------------------------------------|
D --2-2-2-4p-2-2-2-2-4p-2-2-2-2-4p-2-2-2-2-2-4-7---------------------------|
A --------0----------0----------0------------------------------------------|
E -------------------------------------------------------------------------|
    x x x    x x x x    x x x x    x x x x x x x

CHORUS:
E ----------------------------------------------------------------------|
B ----------------------------------------------------------------------|
G --9-9-9-9-9-9-9-9-9-9-9-9-8-8-8-8-----------------4-4-4-4-4-4-4-4-----|
D --9-9-9-9-9-9-9-9-x-x-x-x-x-x-x-x-6-6-6-6-6-6-6-6-4-4-4-4-4-4-4-4-----|(x2)
A --7-7-7-7-7-7-7-7-7-7-7-7-6-6-6-6-6-6-6-6-6-6-6-6-2-2-2-2-2-2-2-2-----|
E ----------------------------------4-4-4-4-4-4-4-4---------------------|

E -------------------------------------------------------------------------|
B -------------------------------------------------------------------------|
G --9-9-9-9-9-9-9--6-6-6-6-6-6-6--4-4-4-4-4-4-4--2--2--2--2--2--2--4-------|
D --9-9-9-9-x-x-x--6-6-6-6-x-x-x--4-4-4-4-x-x-x--2--2--2--2--2--2--4-------|
A --7-7-7-7-7-7-7--4-4-4-4-4-4-4--2-2-2-2-2-2-2--0--0--0--0--0--0--2-------|
E ----------------------------------------------(let each of these ring)---|

The End.

Key:
x = mute note / chord
\ = slide down
/ = slide up
h = hammer on
p = pull off
Suggest correction
comments
print report bad tab
2 comments total.
0 reply
Greidy93 10 wrote on March 27 2009, 01:39 pm

Best tab of San Francisco on Ultimate Guitar!
5 stars!
The verse is wrong, but i gave it 5 stars because it is better than the other tabs ;)

0 reply
Love4Fire 183 wrote on April 12 2011, 10:35 pm

Lots of stuff on the wrong lines.

guest
You may want to rate the tab now too:
select rating
Please do not post tabs as comments. Select "correction" instead!