Oops, an error
Loading. Please wait.

San Francisco Tab

version 3
version 3

Whole song

951 views 1 this week
no commentswrite comment
1 2 3 4 5
please rate
add to favorites
launch autoscroll
font size
0
reset
how to read this tab
guitar tuner
Tab Pro tools
  • play this tab
  • loop segment
  • change instrument
  • show fretboard
  • metronome
×
Best way to learn
"San Francisco"
Autoscroll
slow
fast
+/-
esc
set tempo
stop
Contributor
-------------------------------------------------------------------------------
                             San Francisco - Alkaline Trio
-------------------------------------------------------------------------------
Tabbed by:Glamman
Email:sam_blinkdude@hotmail.com

Tuning:E
                                            play this end bit second
 intro                                      4th time and 6th time round
e|---------------------------------------------------------------------------------|
B|---------------------------------------------------------------------------------|
G|------------999--11-11--13-13---9999999999999999-------11-11-11-11---------------|
D|--99999999--xxx--x--x---x--x----6666666677777777---X 6-x--x--x--x----------------|
A|--77777777--777--9--9---11-11---0000000000000000-------9--9--9--9----------------|
E|--00000000-----------------------------------------------------------------------|
verse
e|------------------------------------------------------------------------------------|
B|------------------------------------------------------------------------------------|
G|----99-9---66-6---------------------------------------------------------------------|
D|----99-9---77-7--1111-11--99-99-----7-----------------------------------------------|
A|----77-7---00-0--1111-11--99-99-X3--7-----------------------------------------------|
E|-----------------9-9--9---77-77-----5-----------------------------------------------|
      xx     xx    x x      xx
interlude
e|--------------------------------|
B|--------------------------------|
G|---999---999--------------------|
D|---999---666--111111--999-------|
A|---777---000--111111--999---X2--|
E|--------------9-9-9---777-------|
chorus
e|-------------------------------------------------------------------------------------|
B|-------------------------------------------------------------------------------------|
G|--99999999-9999-8888---------------99999999------------------------------------------|
D|--99999999-xxxx-xxxx----66666666---99999999--X2--------------------------------------|
A|--77777777-7777-6666----66666666---77777777------------------------------------------|
E|------------------------44444444-----------------------------------------------------|

e|---------------------------------------------------------------------------|
B|---------------------------------------------------------------------------|
G|--99999999--66666666--44444444---2------2----------------------------------|
D|--9999xxxx--6666xxxx--4444xxxx---2------2-------4h2-------4h2-------2/4/6--|
A|--77777777--44444444--22222222---0--00000-000000----000000---000000--------|
E|---------------------------------------------------------------------------|

2nd interlude
e|-------------------------------------------------------------------------------|
B|-------------------------------------------------------------------------------|
G|--999999999999-8888------------------------------------------------------------|
D|--xxxxxxxxxxxx-xxxx---X2-------------------------------------------------------|
A|--777777777777-6666------------------------------------------------------------|
E|-------------------------------------------------------------------------------|
3rd verse
e|-------------------------------------------------------------------------------|
B|-------------------------------------------------------------------------------|
G|--9----999/--------------------------------------------------------------------|
D|--9----xxx/--------------------------------------7-----------------------------|
A|--7----777/----8h9p8h9p8h9p8h9--8h9p8h9p8h9p8h9--7-----------------------------|
E|--0----------------------------------------------5-----------------------------|

end of last chorus                   xxxx  xxxxxx    xxxxxx   xxxxxx
e|-------------------0----------------------------------------------------------------|
B|-------------------0----------------------------------------------------------------|
G|-2--2--2--2--2--2--1----------------------------------------------------------------|
D|-2--2--2--2--2--2--2----------------------------------------------------------------|
A|-0--0--0--0--0--0--2----------------------------------------------------------------|
E|-------------------0----------------------------------------------------------------|


| /  slide up
| \  slide down
| h  hammer-on
| p  pull-off
| ~  vibrato
| +  harmonic
| x  Mute note
comments
We did not receive enough feedback on this tab! Please rate:
print report bad tab
1 2 3 4 5
I want to post or [tab]
guest
You may want to rate the tab now too:
select rating
Please do not post tabs as comments. Select "correction" instead!