Oops, an error
Loading. Please wait.

Settle For Satin Tab

version 1
version 1

Whole song

Interactive

2,338 views 1 this week
no commentswrite comment
1 2 3 4 5
accurate
x 4
add to favorites
launch autoscroll
font size
0
reset
how to read this tab
guitar tuner
Tab Pro tools
  • play this tab
  • loop segment
  • change instrument
  • show fretboard
  • metronome
×
Best way to learn
"Settle For Satin"
Autoscroll
slow
fast
+/-
esc
set tempo
stop
Contributor
Band: Alkaline Trio
Album: Crimson
Song: Settle for Satin
Tabbed by: dluk
Email: dluk07@gmail.com

Another song by the best band ever.

Tuning: Standard

***INTRO:
Guitar 1:                                                 
e|---------------------------------|---------------|12---13-10|
B|10-12-13-12-----------10-12-13-12|13---12---13-12|----------|
G|-------------12-10-9-------------|---------------|----------|
D|---------------------------------|---------------|----------|
A|---------------------------------|---------------|----------| 
E|---------------------------------|x2--first-time-|-second---|

Guitar 2:
e|------------------------------------|
B|------------------------------------|
G|------------------------------------|
D|77777777-22222222-33333333-5555-6666|
A|77777777-22222222-33333333-5555-6666|
E|55555555-00000000-11111111-3333-4444|X2



***VERSE 1: (clean, quiet, soft guitar)
e|------------------------------------|
B|------------------------------------|
G|------------------------------------|
D|77777777-22222222-77777777-5555-6666|
A|77777777-22222222-55555555-5555-6666|
E|55555555-00000000----------3333-4444|X2



***PRE CHORUS:
e|------------------|
B|------------------|
G|------------------|
D|777-55555-33333333|
A|777-55555-33333333|
E|555-33333-11111111|X2


***CHORUS:
Guitar 1:
e|-----------------------------|first-time|---second----------|
B|-----12------12-13-12--------|----------|----------------13~|
G|9-12----12-9----------9-12-10|---9------|10h12--------------|
D|-----------------------------|-----10~--|------10--12-13----|
E|-----------------------------|X2--------|-------------------|

Guitar 2:
e|----------------------------------|first-time-|---second----|
B|----------------------------------|-----------|-------------|
G|-----5555----------------5555-----|-----------|-------------|
D|7777-5555-3333-5555-7777-5555-3333|----55-3-5-|55-66-7~---55|
A|7777-3333-3333-5555-7777-3333-3333|----55-3-5-|55-66-7~---55|
E|5555------1111-3333-5555------1111|X2--33-1-3-|33-44-5~---33|



***VERSE 2: (clean, quiet, soft guitar)
e|------------------------------------|
B|------------------------------------|
G|------------------------------------|
D|77777777-22222222-77777777-5555-6666|
A|77777777-22222222-55555555-5555-6666|
E|55555555-00000000----------3333-4444|X2



***PRE CHORUS:
e|------------------|
B|------------------|
G|------------------|
D|777-55555-33333333|
A|777-55555-33333333|
E|555-33333-11111111|X2



***CHORUS:
Guitar 1:
e|-----------------------------|first-time|---second----------|
B|-----12------12-13-12--------|----------|----------------13~|
G|9-12----12-9----------9-12-10|--9-------|10h12--------------|
D|-----------------------------|----10~---|------10--12-13----|
E|-----------------------------|X2--------|-------------------|

Guitar 2:
e|----------------------------------|first-time-|---second-|
B|----------------------------------|-----------|----------|
G|-----5555----------------5555-----|-----------|----------|
D|7777-5555-3333-5555-7777-5555-3333|----55-3-5-|55-66-7~~~|
A|7777-3333-3333-5555-7777-3333-3333|----55-3-5-|55-66-7~~~|
E|5555------1111-3333-5555------1111|X2--33-1-3-|33-44-5~~~|



***BRIDGE:
e|---------------|--------|
B|---------------|--------|
G|5---2---7------|--------|
D|7---2---7---2-3|----5-6-|
A|7---0---5---2-3|----5-6-|
E|5-------5---0-1|X3--3-4-|



***CHORUS:
Guitar 1:
e|-----------------------------|first-time|---second-------------|
B|-----12------12-13-12--------|----------|----------------13\12~|
G|9-12----12-9----------9-12-10|----9-----|10h12-----------------|
D|-----------------------------|------10~-|------10--12-13-------|
E|-----------------------------|X2--------|----------------------|

Guitar 2:
e|----------------------------------|first-time-|-second|
B|----------------------------------|-----------|-------|
G|-----5555----------------5555-----|-----------|-------|
D|7777-5555-3333-5555-7777-5555-3333|----5555---|55-6-7~|
A|7777-3333-3333-5555-7777-3333-3333|----5555---|55-6-7~|
E|5555------1111-3333-5555------1111|X2--3333---|33-4-5~|
comments
print report bad tab
I want to post or [tab]
guest
You may want to rate the tab now too:
select rating
Please do not post tabs as comments. Select "correction" instead!