Oops, an error
Loading. Please wait.

She Lied To The Fbi Tab

version 2
version 2

Whole song

Video

6,021 views 24 this week
no commentswrite comment
1 2 3 4 5
x 7
add to favorites
launch autoscroll
font size
0
reset
how to read this tab
guitar tuner
Autoscroll
slow
fast
+/-
esc
set tempo
stop
Help us to improve Ultimate-Guitar.com Take our survey!
×
Author
Difficulty
novice
-----------------------------------------------------------------------------
                     She Lied to the FBI - Alkaline Trio
-----------------------------------------------------------------------------

Tabbed by: Blake

Feel free to leave a comment!

Slowly turn up the volume on:
e|---|
B|---| 
G|-9-|
D|-9-|
A|-7-|
E|---|

Intro Solo:
e|-7-7-7-7-7-7-5-5-4-4-4-5-5-5-4-4-|
B|-5-5-5-5-5-5-5-5-5-5-5-5-5-5-5-5-| 
G|---------------------------------|
D|---------------------------------| x4
A|---------------------------------|
E|---------------------------------|

Rhythm in Intro:
e|-----------------------|
B|-----------------------| 
G|-----------2~---4~---2-|
D|-2~---2~---2~---4~---2-|
A|-2~---2~---0~---2~---0-|
E|-0~---0~---------------|

Verse Part 1:
e|---------------------------|
B|---------------------------| 
G|--------2------4-----------|
D|-2------2-x16--4-x13--2----|
A|-2-x32--0------2------0-x3-|
E|-0-------------------------|
pm ...................


Verse Part 2:
e|---------------------------------|
B|---------------------------------| 
G|------------2-2-2~-----4-4-4~----|
D|-2-2-2~-----2-2-2~-x4--4-4-4~-x4-|
A|-2-2-2~-x8--0-0-0~-----2-2-2~----|
E|-0-0-0~--------------------------|
pm . .        . .        . .

Chorus:
e|-------------------|
B|-------------------| 
G|-------------9-----|
D|-7-----9-----9-x16-| x2
A|-7-x8--9-x8--7-----|
E|-5-----7-----0-----|

e|------------------------------------|
B|------------------------------------| 
G|-------------9-----6----------------|
D|-7-----9-----9-x8--6-x8--7-----9----| 
A|-7-x8--9-x8--7-----4-----7-x8--9-x8-|
E|-5-----7-----0-----------5-----7----|

Verse Part 1:
e|-------------------------|
B|-------------------------| 
G|------2------4-----------|
D|------2-x16--4-x13--2----|
A|------0------2------0-x3-|
E|-/12---------------------|
pm      .....  .....

Verse Part 2:
e|---------------------------------|
B|---------------------------------| 
G|------------2-2-2~-----4-4-4~----|
D|-2-2-2~-----2-2-2~-x4--4-4-4~-x4-|
A|-2-2-2~-x8--0-0-0~-----2-2-2~----|
E|-0-0-0~--------------------------|
pm . .        . .        . .

Chorus:
e|-------------------|
B|-------------------| 
G|-------------9-----|
D|-7-----9-----9-x16-| x2
A|-7-x8--9-x8--7-----|
E|-5-----7-----0-----|

e|------------------------------------|
B|------------------------------------| 
G|-------------9-----6----------------|
D|-7-----9-----9-x8--6-x8--7-----9----| 
A|-7-x8--9-x8--7-----4-----7-x8--9-x8-|
E|-5-----7-----0-----------5-----7----|

Bridge:
e|-------------------|
B|-------------------| 
G|-------------2-----|
D|-6-----2-----2-x16-| x3
A|-6-x8--2-x8--0-----|
E|-4-----0-----------|

e|-------------------|
B|-------------------| 
G|-------------4-----|
D|-6-----2-----4-x16-|
A|-6-x8--2-x8--2-----|
E|-4-----0-----------|

Outro Solo (continues until end):
e|-7-7-7-7-7-7-5-5-4-4-4-5-5-5-4-4-|
B|-5-5-5-5-5-5-5-5-5-5-5-5-5-5-5-5-| 
G|---------------------------------|
D|---------------------------------|
A|---------------------------------|
E|---------------------------------|

Outro Part 1:
e|-------------------|
B|-------------------| 
G|-----------2~---4~-|
D|-2~---2~---2~---4~-|
A|-2~---2~---0~---2~-|
E|-0~---0~-----------|

Pick Slide Then Part 2:
e|----------------------|
B|----------------------| 
G|--------2-------4-----|
D|-2------2-x16---4-x16-| x2
A|-2-x32--0-------2-----|
E|-0--------------------|

End On:
e|-0~-|
B|-0~-| 
G|-1~-|
D|-2~-|
A|-2~-|
E|-0~-|
Suggest correction
comments
print report bad tab
guest
You may want to rate the tab now too:
select rating
Wanna post a correction for this tab? Suggest correction