Oops, an error
Loading. Please wait.

She Took Him To The Lake Tab

version 1
version 1

Whole song

Interactive

3,412 views 6 this week
no commentswrite comment
1 2 3 4 5
x 6
add to favorites
launch autoscroll
font size
0
reset
how to read this tab
guitar tuner
Autoscroll
slow
fast
+/-
esc
set tempo
stop
Help us to improve Ultimate-Guitar.com Take our survey!
×
Author
Artists: Alkaline trio
Song: She Took Him To The Lake
Tunning: Standard


Intro
|------------------------------------------|
|------------------------------------------|
|--9999-xxxx-9999-xxxx-9999-xxxx-99999999--|
|-------xxxx------xxxx------xxxx-----------|
|--7777-xxxx-7777-xxxx-7777-xxxx-77777777--|
|------------------------------------------|

Verse
|-----------------------|
|-----------------------|
|--6------9------8------|  2x
|--6-32x----16x----16x--|
|--4------7------6------|
|-----------------------|

Verse 2
|-----------------------------------|
|-----------------------------------|
|--6------9-----8-----9------8------|
|--6-16x----8x----8x----16x----16x--|
|--4------7-----6-----7------6------|
|-----------------------------------|

|---------------------------|
|---------------------------|
|--6------9-----8-----6-----|
|--6-16x----8x----4x----4x--|
|--4------7-----6-----4-----|
|---------------------------|

Bridge 
|------------------------------------------------|
|------------------------------------------------|
|-----------------------9-----8------------------|
|--9------7------9------9-8x--9-8x--11-----9-----|
|--9-32x--7-16x--9-16x--7-----6-----11-8x--9-8x--|
|--7------5------7------------------9------7-----|

|------------------------------------------|
|------------------------------------------|
|------------------------------------------|
|--7777-xxxx-7777-xxxx-7777-xxxx-77777777--|
|--7777-xxxx-7777-xxxx-7777-xxxx-77777777--|
|--5555-xxxx-5555-xxxx-5555-xxxx-55555555--|

|---------------------|
|---------------------|
|--9------6-----8-----|
|----16x----8x----8x--|
|--7------4-----6-----|
|---------------------|

|--------------------------------------------------------------|
|--------------------------------------------------------------|
|--14141414-xxxx-14141414-xxxx-14141414-xxxx-1414141414141414--|
|-----------xxxx----------xxxx----------xxxx-------------------|
|--12121212-xxxx-12121212-xxxx-12121212-xxxx-1212121212121212--|
|--------------------------------------------------------------|

|-------------------------------------|
|-------------------------------------|
|-------------------------------------|
|--11---------------------------------|
|--11----------x\\\\\\\\\\\\\\\\\-----|
|--9-----------x\\\\\\\\\\\\\\\\\\\\--|

Verse
|--------------------------------------------------------|
|--------------------------------------------------------|
|--9------8------6------9------8------9------8-----6-----|
|----16x----16x--6-16x----8x-----8x-----24x----4x----2x--|
|--7------6------4------7------6------7------6-----4-----|
|--------------------------------------------------------|

Bridge
|--------------------------------------------------------|
|--------------------------------------------------------|
|----------------9999-xxxx-9999-xxxx-9999-xxxx-99999999--| 2x 
|--9------7-----------xxxx------xxxx------xxxx-----------|
|--9-16x--7-16x--7777-xxxx-7777-xxxx-7777-xxxx-77777777--|
|--7------5----------------------------------------------|

|-------------------------------------------------|
|-------------------------------------------------|
|--9------13-----11-----9-----8-----9------8------| 2x
|----16x-----8x-----4x----4x----2x----16x----16x--|
|--7------11-----9------7-----6-----7------6------|
|-------------------------------------------------|

|----------------------------|
|----------------------------|
|--6------9-----8-----9------| 2x
|--6-16x----8x----8x----32x--|
|--4------7-----6-----7------|
|----------------------------|

|--------------------------------------------------------|
|--------------------------------------------------------|
|----------------9999-xxxx-9999-xxxx-9999-xxxx-99999999--| 2x 
|--9------7-----------xxxx------xxxx------xxxx-----------|
|--9-16x--7-16x--7777-xxxx-7777-xxxx-7777-xxxx-77777777--|
|--7------5----------------------------------------------|

End
|--------------|
|--------------|
|--------------|
|--11---9---7--|
|--11---9---7--|
|--9----7---5--|


Any question email me at astro_zombie01@yahoo.com

Suggest correction
comments
print report bad tab
guest
You may want to rate the tab now too:
select rating
Wanna post a correction for this tab? Suggest correction