Oops, an error
Loading. Please wait.

Smoke Bass Tab

version 1
version 1

Whole song

Interactive

1,076 views 1 this week
1 commentread comment
1 2 3 4 5
please rate
add to favorites
launch autoscroll
font size
0
reset
guitar tuner
Autoscroll
slow
fast
+/-
esc
set tempo
stop
Help us to improve Ultimate-Guitar.com Take our survey!
×
Song:Smoke
Band:Alkaline Trio
Album:Crimson
Tuning:Standard

ok i'm pretty sure that this is right here it is.

Intro #1
E|-0~2~3~5~--|
A|---------3~|
D|-----------|
G|-----------|

Verse pt.1
E|-00-0------33-355-5-----------------|
A|------55-5----------33-333-333-3222-|
D|------------------------------------|
G|------------------------------------|

verse pt.2
E|-------------------------------------|
A|-2/77-755-5--------7-33-333-333-3222-|
D|------------55-5764------------------|
G|-------------------------------------|

intro #2
E|------------------------------00-022-233-355-5-----------------|
A|/7~------3--------3-5---3-5-2------------------33-333-333-3222-|
D|---4~5~7~--5/7-55-----2----------------------------------------|
G|----------5----------------------------------------------------|

Verse pt.1 x1

verse pt.3
E|-------------------------------------|
A|-2/77-755-5--------7-33-333-333-3555-|
D|------------55-5764------------------|
G|-------------------------------------|

pre-chours
E|-0~--3~--|
A|---3~--5~| x2
D|---------|
G|---------|

chours
E|-00000000----------33333333----------|
A|----------33333333----------55555555-|x2
D|-------------------------------------|
G|-------------------------------------|

Intro #3
E|-0~2~3~5~-------------------0~2~3~5~----------------|
A|---------3-------3-5--3-5-2---------33-333-333-3222-|
D|-----------5/7-55---2-------------------------------|
G|----------5-----------------------------------------|

verse pt.1 x1

verse pt.2 x1

verse pt.4
E|-00-0----33-3-55-5----------------|
A|-----55-5---------33-333-333-3555-|
D|----------------------------------|
G|----------------------------------|

Pre-chours x1

chours x1

intro x1

thats it. pretty easy but still a very good song. one thing i like 2 do to just make
it more interesting is yhat on the very last pre-chours (the last time on the last pre-
chours is slide up to a|-7-|,then D|-5-|, G|-7-|, d|-7-9-|. idk just kinda fun. remember
alk3 rocks!
Suggest correction
Give kudos to tab author, rate the tab!
1 2 3 4 5
comments
print report bad tab
1 comment total.
0 reply
Mikexv 10 wrote on October 6 2007, 04:57 am

dude how can you hear this in the song !?! still it fits and sounds awesome, 5 ***** suprised no one else has comented or rated. great job dude. =]

guest
You may want to rate the tab now too:
select rating
Please do not post tabs as comments. Select "correction" instead!