Oops, an error
Loading. Please wait.

Smoke Tab

version 1
version 1

Whole song

Interactive

5,494 views 18 this week
5 commentsread comments
1 2 3 4 5
accurate
x 6
add to favorites
launch autoscroll
font size
0
reset
how to read this tab
guitar tuner
Autoscroll
slow
fast
+/-
esc
set tempo
stop
Help us to improve Ultimate-Guitar.com Take our survey!
×
Author
ALKALINE TRIO
SMOKE
CRIMSON

This is off their new album due out 24th May, listen to the song for strumming patterns, 
sounds ok to me, but im not sure on the chorus.

INTRO (i) + (ii)
         (i)              (ii)      (i)
e|-12-10-7-8-7-5-7-3-|7h8h8h8h8h8|-0---------------|
B|-------------------|-----------|-----------------|
G|-------------------|-----------|-----------------|
D|-------------------|-----------|-----------------|
A|-------------------|-----------|-----------------|
E|-------------------|-----------|-----------------|

VERSE
e|-------------------------------------------------|
B|-------------------------------------------------|
G|--------7--------2------------2------------------|
D|---2---7-7--5---2-2--2---5---2-2--5--------------|
A|--2-2-5----5-5-0----2-2-5-5-0----5-5-------------|
E|-0--------3--------0---3--------3----------------|

PRE CHORUS
e|-------------------------------------------------|
B|-------------------------------------------------|
G|----5-----7--------------------------------------|
D|-2--5--5--7--------------------------------------|
A|-2--3--5--5--------------------------------------|
E|-0-----3-----------------------------------------|

CHORUS
e|------------------------------------------------|
B|------------------------------------------------|
G|----5-----7-------------------------------------|
D|-2--5--5--7-------------------------------------|
A|-2--3--5--5-------------------------------------|
E|-0-----3----------------------------------------|

INTRO (i) + (iii)
INTRO (i) + (ii)

VERSE

PRE CHORUS

CHORUS

INTRO (i) + (iii)
INTRO (i) + (ii)

VERSE

INTRO (i) + (iii)

PRE CHORUS

CHORUS

INTRO (i) + ( iii)

For corrections email me at e_mericana@hotmail.com
Suggest correction
comments
print report bad tab
5 comments total. Showing first comments.
0 reply
GoykPunk 20 wrote on June 16 2005, 12:00 am

I'm assuming 7h8h8h8h8h8 is meaning 7h8p7h8p7h8...

0 reply
Saxmaster 10 wrote on August 3 2005, 12:00 am

Hey!

in my opinion this tab is not very accurate at all - especially verse! try this for a change:

VERSE
e|------------------------------------------------|
B|------------------------------------------------|
G|----------------2----4---4---4---4--------------|
D|---2---4---5---2----5---5---5---5---------------|
A|--2---5---5---0----3---3---3---2----------------|
E|-0---2---3--------------------------------------|
..plane ride out.....

i don't claim this to be right - but it sounds more authentic to me...
pre-chorus is ok - but the chorus! hey guys - do some ear-training!!!
the chords in this part are

Chorus
e|-------------------------------------------------|
B|-------------------------------------------------|
G|-------4-------------5------------------------7--|
D|-------4-------------5-----------5------------7--|
A|-------2-------------3-----------5------------5--|
E|---------------------------------3---------------|
take me home, tuck me in - moon go down, do it again

This is it - enjoy!

0 reply
huh?!?blah 30 wrote on April 23 2007, 03:15 pm

k, you guys can't write tabs, it's in drop d tuning, and then from there on it's pretty easy to figure out the verses

guest
You may want to rate the tab now too:
select rating
Please do not post tabs as comments. Select "correction" instead!