Oops, an error
Loading. Please wait.

Smoke Bass Tab

version 2
version 2

Whole song

Interactive

740 views 1 this week
1 commentread comment
1 2 3 4 5
x 3
add to favorites
launch autoscroll
font size
0
reset
guitar tuner
Autoscroll
slow
fast
+/-
esc
set tempo
stop
Help us to improve Ultimate-Guitar.com Take our survey!
×
Author
Difficulty
intermediate
Saw that rancidbass220 had tabbed this, but I just wanted to post this with the 
chords inverted (my general preference), so all credit to rancidbass220.

Intro #1
G|-----------|
D|-----------|
A|---------3~|
E|-0~2~3~5~--|

Verse pt.1
G|------------------------------------|
D|------------------------------------|
A|------55-5----------33-333-333-3222-|
E|-00-0------33-355-5-----------------|

verse pt.2
G|-------------------------------------|
D|------------55-5764------------------|
A|-2/77-755-5--------7-33-333-333-3222-|
E|-------------------------------------|

intro #2
G|----------5----------------------------------------------------|
D|---4~5~7~--5/7-55-----2----------------------------------------|
A|/7~------3--------3-5---3-5-2------------------33-333-333-3222-|
E|------------------------------00-022-233-355-5-----------------|

Verse pt.1 x1

verse pt.3
G|-------------------------------------|
D|------------55-5764------------------|
A|-2/77-755-5--------7-33-333-333-3555-|
E|-------------------------------------|

pre-chours
G|---------|
D|---------|
A|---3~--5~| x2
E|-0~--3~--|

chours
G|-------------------------------------|
D|-------------------------------------|
A|----------33333333----------55555555-|x2
E|-00000000----------33333333----------|

Intro #3
G|----------5-----------------------------------------|
D|-----------5/7-55---2-------------------------------|
A|---------3-------3-5--3-5-2---------33-333-333-3222-|
E|-0~2~3~5~-------------------0~2~3~5~----------------|

verse pt.1 x1

verse pt.2 x1

verse pt.4
G|----------------------------------|
D|----------------------------------|
A|-----55-5---------33-333-333-3555-|
E|-00-0----33-3-55-5----------------|
Suggest correction
Give kudos to tab author, rate the tab!
1 2 3 4 5
comments
print report bad tab
1 comment total.
+1 reply
hrdcore_kenny 15 Dec 01, 2010 10:39 PM

Thank you! I was struggling with rancidbass220's tab because I wasn't used to the inversion. I was just about to do this, but you saved me some time, haha. Now it's a breeze.

guest
You may want to rate the tab now too:
select rating
Wanna post a correction for this tab? Suggest correction