Oops, an error
Loading. Please wait.

Snake Oil Tanker Bass Tab

791 views 1 this week
1 commentread comment
1 2 3 4 5
please rate
add to favorites
launch autoscroll
font size
0
reset
guitar tuner
Autoscroll
slow
fast
+/-
esc
set tempo
stop
Help us to improve Ultimate-Guitar.com Take our survey!
×
Author
Difficulty
intermediate
A very fast song for the s/t. I think this is just about perfect but feel free to
post improvements.
(tuning standard)

Intro
|----------------------------------------------|
|----------------------------------------------|
|0-0-000-0-00-0-0-0-2-2-2--0-0-000-0-0---------|
|--------------------------------------10\\\\\\|

Verse
(listen for changes, and just strum the note as many times as you can in the time)
|-----------------------------------------------------------------
|-----------------------------------------------------------------
|------------------5555555555555557999999991111111111121212121212-
|222222222222222222-----------------------------------------------
                                             ^11's and 12's
|------------------------------------------------------------------|
|------------------------------------------------------------------|
|------------------------------------------------------------------|
|101010101010101010101010101010101212121212121212121212121212121212|
   ^10's and 11's

Play the verse twice

Chorus
|----------------------------------------------6666----------------|
|------------------7777999977776666--------6666--------------------|
|000000000000000000----------------44444444------------------------|
|--------------------------------------------------2222222200000000|

|--------------------------------------------------------------------|
|------------------7777999977667766----------------------------------|
|000000000000000000----------------444444444444444444----------------|
|----------------------------------------------------2222222200000000|

Break
|----------------------------------------------|
|----------------------------------------------|
|0-0-000-0-00-0-0-0-2-2-2--0-0-000-0-0-5-------|
|----------------------------------------------|

Verse (same again)
Chorus (same again)
|-----------------------------------------------------|
|-----------------------------------------------------|
|0-0-000-0-00-0-0-0-2-2-2--0-0-000-0-0-5R-4R-2R-------|
|------------------------------------------------2-4-5|

Listen for strumming patterns.
R=Rest
\\\=slide down
Suggest correction
Give kudos to tab author, rate the tab!
1 2 3 4 5
comments
print report bad tab
1 comment total.
0 reply
grevie95 10 wrote on July 22 2015, 12:37 am

The second bar of the first verse, it says, "10's and 11's" where it should say, "10's and 12's". Not a big issue, and I'm sure it was a simple typo, but I figured I may as well point it out.

guest
You may want to rate the tab now too:
select rating
Please do not post tabs as comments. Select "correction" instead!