Oops, an error
Loading. Please wait.

Snake Oil Tanker Tab

version 2
version 2

Whole song

769 views 1 this week
no commentswrite comment
1 2 3 4 5
please rate
add to favorites
launch autoscroll
font size
0
reset
how to read this tab
guitar tuner
Autoscroll
slow
fast
+/-
esc
set tempo
stop
Help us to improve Ultimate-Guitar.com Take our survey!
×
Author
Song: Snake Oil Tanker
Artist: Alkaline Trio
Album: Maybe I'll Catch Fire (Bonus Track)

Tuning: Standard (EADGBe)

I don't think this is the official way, but it means you don't
have to change the tuning on your guitar.  I can't guarantee 
it's right cos the guitar is really unclear on this song, but I
think this is more accurate than the other version.

Intro:
e|-------------------------------|
B|-------------------------------|
G|-2---2---2---------2---2---7\2-|
D|-2---2---2---2-2---2---2---7\2-|
A|-0---0---0---2-2---0---0---5\0-|
E|-------------0-0---------------|

Verse:
e|---------------------------------------|
B|-----3-------3-----------3-------3-----|
G|-----2-------2-----------2-------2-----|
D|-4---0---4---0---2---4---0---4---0---2-|
A|-4-------4-------2---4-------4-------2-|
E|-2-------2-------0---2-------2-------0-|
  (Play 8 of each chord covering E,A + D)

Chorus:
e|-------------------------------------------------------|
B|-------------------------------------------------------|
G|-2-2-2-2-2-2-2-6---2-2-2-2-2-2-2-6---------------------|
D|-2-2-2-2-2-2-2-6---2-2-2-2-2-2-2-6---4-4-4-4---2-2-2-2-|
A|-0-0-0-0-0-0-x-4---0-0-0-0-0-0-x-4---4-4-4-4---2-2-2-2-|
E|-------------4-----------------4-----2-2-2-2---0-0-0-0-|

Bridge:
e|-------------------------------|
B|-------------------------------|
G|-2---2---2---------2---2---7\2-|
D|-2---2---2---2-2---2---2---7\2-|
A|-0---0---0---2-2---0---0---5\0-|
E|-------------0-0---------------|
   PM  PM  PM  PMPM  PM  PM

Verse 2:
e|----------------------------------------|
B|---------------------------3----------3-|
G|---------------------------2----------2-|
D|-4----------x\/\/----------0----------0-|
A|-4--------------------------------------|
E|-2--------------------------------------|
                                    PM

Chorus:
e|-------------------------------------------------------|
B|-------------------------------------------------------|
G|-2-2-2-2-2-2-2-6---2-2-2-2-2-2-2-6---------------------|
D|-2-2-2-2-2-2-2-6---2-2-2-2-2-2-2-6---4-4-4-4---2-2-2-2-|
A|-0-0-0-0-0-0-x-4---0-0-0-0-0-0-x-4---4-4-4-4---2-2-2-2-|
E|-------------4-----------------4-----2-2-2-2---0-0-0-0-|

Outro:
e|------------------------------------------|
B|------------------------------------------|
G|-2---2---2---------2---2---7-6-4----------|
D|-2---2---2---2-2---2---2---7-6-4-4-6-7\1p-|
A|-0---0---0---2-2---0---0---5-4-2-4-6-7\1p-|
E|-------------0-0-----------------2-4-5\0--|

| /  slide up
| \  slide down
| p  pull-off
| PM palm-mute
| x  scrape along string

Ps the scraping bit won't work with acoustics

enjoy xxx
Suggest correction
Give kudos to tab author, rate the tab!
1 2 3 4 5
comments
print report bad tab
guest
You may want to rate the tab now too:
select rating
Please do not post tabs as comments. Select "correction" instead!