Oops, an error
Loading. Please wait.

Southern Rock Tab

version 2
version 2

Whole song

4,988 views 9 this week
1 commentread comment
1 2 3 4 5
excellent!
x 4
add to favorites
launch autoscroll
font size
0
reset
how to read this tab
guitar tuner
Autoscroll
slow
fast
+/-
esc
set tempo
stop
Help us to improve Ultimate-Guitar.com Take our survey!
×
Author
-------------------------------------------------------------------------------
			     SOUTHERN ROCK - Alkaline Trio
-------------------------------------------------------------------------------
Tabbed by:John Proach
Email:s.a.d@tumyeto.com

Tuning:standard

never really found a complete version of this song so i tabbed it out myself.
strumming patterns are as close as i could get them, but there may be a couple
mistakes. if you have trouble with the timing, put the song on and play along.
other than that i think everything from the song is here. 


Verses 1&2

e|---------------------------------------------------------------------------|
B|----------------------------------(                lightly               )|
G|----------------------------------9--9--9--9--9--9--9--9--9--9--9--9--9--9-|
D|------6-----7-----9-----7-----6---9--9--9--9--9--9--9--9--9--9--9--9--9--9-|
A|--0-0---0-0---0-0---0-0---0-0---0-7--7--7--7--7--7--7--7--7--7--7--7--7--7-|
E|---------------------------------------------------------------------------|
			V1	     I cant believe my heart's still pounding

			V2	    Hard to believe my heart stopped pounding 

e|---------------------------------------------------------------------------|
B|----------------------------------(                lightly               )|
G|----------------------------------9--9--9--9--9--9--9--9--9--9--9--9--9--9-|
D|------6-----7-----9-----7-----6---9--9--9--9--9--9--9--9--9--9--9--9--9--9-|
A|--0-0---0-0---0-0---0-0---0-0---0-7--7--7--7--7--7--7--7--7--7--7--7--7--7-|
E|---------------------------------------------------------------------------|
			V1	    	I can't believe how close I came

			V2		Hard to believe I played this game 

e|---------------------------------------------------------------------------|
B|----------------------------------(                lightly               )|
G|----------------------------------9--9--9--9--9--9--9--9--9--9--9--9--9--9-|
D|------6-----7-----9-----7-----6---9--9--9--9--9--9--9--9--9--9--9--9--9--9-|
A|--0-0---0-0---0-0---0-0---0-0---0-7--7--7--7--7--7--7--7--7--7--7--7--7--7-|
E|---------------------------------------------------------------------------|
			V1		And meanwhile heaven's falling 

			V2		My worst nightmares became real 

e|---------------------------------------------------------------------------|
B|---------------------------------------------------------------------------|
G|-------------------------------------9--9--9--9--9--9--9--9--9--9--9--9--9-|
D|------6-----7-----9-9-9-9-9-9-9------9--9--9--9--9--9--9--9--9--9--9--9--9-|
A|--0-0---0-0---0-0-0-0-0-0-0-0-0------7--7--7--7--7--7--7--7--7--7--7--7--7-|
E|---------------------------------------------------------------------------|
			V1		The fallen angels flown away 

			V2		I got so scared that I forgot my name 
Chorus
e|---------------------------------------------------------------------------|
B|---------------------------------------------------------------------------|
G|--8-8-8--------------------------------------------------------------------|
D|--x-x-x-----------------------------------9-9---9-9-9---9-9-9---9-9-9------|
A|--6-6-6---6-6-6--7-7-7--2-2-2-2--4-6------9-9---9-9-9---9-9-9---9-9-9------|
E|----------4-4-4--4-4-4--0-0-0-0--2-4------7-7---7-7-7---7-7-7---7-7-7------|
					       And that'll be me someday 

e|---------------------------------------------------------------------------|
B|---------------------------------------------------------------------------|
G|--8-8-8--------------------------------------------------------------------|
D|--x-x-x-----------------------------------9-9---9-9-9---9-9-9---9-9-9------|
A|--6-6-6---6-6-6--7-7-7--2-2-2-2--4-6------9-9---9-9-9---9-9-9---9-9-9------|
E|----------4-4-4--4-4-4--0-0-0-0--2-4------7-7---7-7-7---7-7-7---7-7-7------|
					      With stolen wings and evil ways 

e|---------------------------------------------------------------------------|
B|---------------------------------------------------------------------------|
G|--8-8-8--------------------------------------------------------------------|
D|--x-x-x-----------------------------------9-9---9-9-9---9-9-9---9-9-9------|
A|--6-6-6---6-6-6--7-7-7--2-2-2-2--4-6------9-9---9-9-9---9-9-9---9-9-9------|
E|----------4-4-4--4-4-4--0-0-0-0--2-4------7-7---7-7-7---7-7-7---7-7-7------|
				    Straight south with the keys to the pearly 
									gates 

e|---------------------------------------------------------------------------|
B|---------------------------------------------------------------------------|
G|--8-8-8--------------------------------------------------------------------|
D|--x-x-x--------------------------------------------------------------------|
A|--6-6-6---6-6-6--7-7-7--7-7-7--9-9-9---------------------------------------|
E|----------4-4-4--4-4-4--5-5-5--7-7-7---------------------------------------|

Bridge
e|---------------------------------------------------------------------------|
B|---------------------------------------------------------------------------|
G|---------------------------------------------------------------------------|
D|--6---7---9---7-------------------------------6--7/11--9\7-----6^7---------|
A|--0---0---0---0-------7--------------------0----------------------------7--|
E|----------------------0-------------------------------------------------0--|

e|---------------------------------------------------------------------------|
B|---------------------------------------------------------------------------|
G|---(           lightly              )-------------------------------------|
D|---9-9-9-9-9--7-7-7-7--6-6-6-----------------------------------------------|
A|---0-0-0-0-0--0-0-0-0--0-0-0--7-7-7-7-------7------------------------------|
E|------------------------------0-0-0-0-------0------------------------------|

e|---------------------------------------------------------------------------|
B|---------------------------------------------------------------------------|
G|---------------------------------------------------------------------------|
D|----9-9-9-9-9-9-9-9-9-9-9-9--9--9-9-9-9-9-9-9-9-9-9-9-9-9-9-9--------------|
A|----0-0-0-0-0-0-0-0-0-0-0-0--7--7-7-7-7-7-7-7-7-7-7-7-7-7-7-7--------------|
E|---------------------------------------------------------------------------|
			       PM ************* gradually unmute
Outro
e|---------------------------------------------------------------------------|
B|---------------------------------------------------------------------------|
G|------------------------4--44/6--66/8--88/9--------------------------------|
D|---9--999--999--999-----x--xx/x--xx/x--xx/x--------------------------------|
A|---9--999--999--999-----2--22/4--44/6--66/7--------------------------------|
E|---7--777--777--777--------------------------------------------------------|

e|---------------------------------------------------------------------------|
B|---------------------------------------------------------------------------|
G|---9-9-9-99-9/11-11--------------------------------------------------------|
D|---9-9-9-99-x/x--x----------------7-7-7------------------------------------|
A|---7-7-7-77-7/9--9-----6-6--7-77--7-7-7------------------------------------|
E|-----------------------4-4--4-44--5-5-5------------------------------------|

e|---------------------------------------------------------------------------|
B|---------------------------------------------------------------------------|
G|------------------------4--44/6--66/8--88/9--------------------------------|
D|---9--999--999--999-----x--xx/x--xx/x--xx/x--------------------------------|
A|---9--999--999--999-----2--22/4--44/6--66/7--------------------------------|
E|---7--777--777--777--------------------------------------------------------|

e|---------------------------------------------------------------------------|
B|---------------------------------------------------------------------------|
G|---9-9-9-99-9/11-11--------------------------------------------------------|
D|---9-9-9-99-x/x--x----------------7-7-7------------------------------------|
A|---7-7-7-77-7/9--9-----6-6--7-77--7-7-7------------------------------------|
E|-----------------------4-4--4-44--5-5-5------------------------------------|

e|---------------------------------------------------------------------------|
B|---------------------------------------------------------------------------|
G|------------------------4--44/6--66/8--88/9--------------------------------|
D|---9--999--999--999-----x--xx/x--xx/x--xx/x--------------------------------|
A|---9--999--999--999-----2--22/4--44/6--66/7--------------------------------|
E|---7--777--777--777--------------------------------------------------------|

e|---------------------------------------------------------------------------|
B|---------------------------------------------------------------------------|
G|---9-9-9-99-9/11-11--------------------------------------------------------|
D|---9-9-9-99-x/x--x----------------7-7-7------------------------------------|
A|---7-7-7-77-7/9--9-----6-6--7-77--7-7-7------------------------------------|
E|-----------------------4-4--4-44--5-5-5------------------------------------|

e|---------------------------------------------------------------------------|
B|---------------------------------------------------------------------------|
G|------------------------4--44/6--66/8--88/9--------------------------------|
D|---9--999--999--999-----x--xx/x--xx/x--xx/x--------------------------------|
A|---9--999--999--999-----2--22/4--44/6--66/7--------------------------------|
E|---7--777--777--777--------------------------------------------------------|

e|---------------------------------------------------------------------------|
B|---------------------------------------------------------------------------|
G|---9-9--9-9-9--9-----------------------------------------------------------|
D|---9-9--9-9-9--9-------6-6--6-7-7--7---------------------------------------|
A|---7-7--7-7-7--7-------6-6--6-7-7--7---------------------------------------|
E|-----------------------4-4--4-5-5--5---------------------------------------|

e|---------------------------------------------------------------------------|
B|---------------------------------------------------------------------------|
G|------------------------4--44/6--66/8--88/9--------------------------------|
D|---9--999--999--999-----x--xx/x--xx/x--xx/x--------------------------------|
A|---9--999--999--999-----2--22/4--44/6--66/7--------------------------------|
E|---7--777--777--777--------------------------------------------------------|

e|---------------------------------------------------------------------------|
B|---------------------------------------------------------------------------|
G|------------------------4--44/6--66/8--88/9--------------------------------|
D|---9--999--999--999-----x--xx/x--xx/x--xx/x----------------2---------------|
A|---9--999--999--999-----2--22/4--44/6--66/7----------------2---------------|
E|---7--777--777--777----------------------------------------0---------------|

verse 1
chorus
verse2
chorus
bridge
outro


| /  slide up
| \  slide down
| h  hammer-on
| p  pull-off
| ~  vibrato
| +  harmonic
| x  Mute note
===============================================================================
Suggest correction
comments
print report bad tab
1 comment total.
0 reply
Guitarmanmatt 248 wrote on December 5 2006, 10:17 am

this is the off goddamnit by the way the version of s/t is different

guest
You may want to rate the tab now too:
select rating
Wanna post a correction for this tab? Suggest correction