Oops, an error
Loading. Please wait.

Steamer Trunk Tab

version 2
version 2

Whole song

Interactive

1,253 views 1 this week
no commentswrite comment
1 2 3 4 5
please rate
add to favorites
launch autoscroll
font size
0
reset
how to read this tab
guitar tuner
Tab Pro tools
  • play this tab
  • loop segment
  • change instrument
  • show fretboard
  • metronome
×
Best way to learn
"Steamer Trunk"
Autoscroll
slow
fast
+/-
esc
set tempo
stop
Contributor
6. [Streamer Trunk] - [02:50]

** Pay attention to the times in this song, i just tabbed the seperate
   riffs and thers alot of overdubbing**

[Riff 1] - [00:00:] - [00:09]
- ------------------------------------------------------------------------|
- ------------------------------------------------------------------------|
- -666666666666-4444-6666666666-444444-66666666666-1111-44-6666666666-444-|
- -xxxxxxxxxxxx-xxxx-xxxxxxxxxx-xxxxxx-xxxxxxxxxxx-x-x--xx-xxxxxxxxxx-xxx-|
- -444444444444-2222-4444444444-222222-44444444444-9-9--22-4444444444-222-|
- ------------------------------------------------------------------------|

[Riff 2] - [00:00:] - [00:09]
- ----------------------------------------------------------------|
- ----------------------------------------------------------------|
- ----------------------------------------------------------------|
- -7777777777777777-111111111111111111111111-9999-777777777777777-|
- -7777777777777777-9-9-9-9-9-9-9-9-9-9-9-9--7777-777777777777777-|
- -5555555555555555--------------------------0000-555555555555555-|

  ----------------------------|
  ----------------------------|
  ----------------------------|
  -111111111111111111111111-9-|
  -9-9-9-9-9-9-9-9-9-9-9-9--7-|
  --------------------------0-|

[Riff 3] - [00:09] - [00:24]
- -----------------|
- -----------------|
- -6~---4~-6~---4~-|
- -x----x--x----x--|
- -4~---2~-4~---2~-|
- -----------------|

[Riff 4] - [00:09] - [00:24]
- --------------------|
- --------------------|
- --------------------|
- -7~---7-7-11~---9-9-|
- -7~---7-7-9~----7-7-|
- -5~---5-5-------0-0-|

[Riff 5] - [00:24] - [00:29]
- -------------------------------|
- -------------------------------|
- -44444444444444444-77777777-4~-|
- -xxxxxxxxxxxxxxxxx-77777777-x--|
- -22222222222222222-55555555-2~-|
- -00000000000000000-55555555-0~-|

[Riff 1 + 2] - [00:29] - [00:38]
[Riff 3 + 4] - [00:38] - [00:52]

[Riff 6] - [00:52] - [00:57]
- --------------------------------------|
- --------------------------------------|
- -44444444444444444-77777777-6666-4444-|
- -xxxxxxxxxxxxxxxxx-xxxxxxxx-xxxx-xxxx-|
- -22222222222222222-55555555-4444-2222-|
- -00000000000000000--------------------|

[Riff 7] - [00:57] - [01:16]
- ---------------------------------------------------------------------|
- ---------------------------------------------------------------------|
- -99999999999999999-14141414141414141414141414141414------------------|
- -xxxxxxxxxxxxxxxxx-x-x-x-x-x-x-x-x-x-x-x-x-x-x-x-x-------------------|
- -77777777777777777-12121212121212121212121212121212-4444444444444444-|
- -55555555555555555-10101010101010101010101010101010-2222222222222222-|

  ------------------|
  ------------------|
  ------------------|
  ------------------|
  -2222222244422222-
  -0000000000000000-

[Riff 1 + 2] - [01:16] - [01:25]
[Riff 3 + 4] - [01:25] - [01:40]
[Riff 5] - [01:40] - [01:44]
[Riff 7] - [01:44] - [02:03]

[Riff 8] - [02:03] - [02:21]
- ----------|
- -----5~---|
- ---6~--6~-|
- ----------|
- -0~-------|
- ----------|

[Riff 9] - [02:21] - [02:23]
--------|
--------|
--------|
-\\\///-
-\\\///-
-\\\///-

[Riff 7] - [02:23] - [02:42]

[Riff 10] - [02:42] - [02:50]
- ----
- ----
- -9~-
- -x--
- -7~-
- -5~-

[Symbols]
x     Dead Note
PM... Palm Mute (where ... is shown)
~     Let Ring
/     Slide Up
h     Hammer On
\     Slide Down
///   Pickslide Up
\\\   Pickslide Down
b     Bend
r     Release
p     Pull Off
comments
We did not receive enough feedback on this tab! Please rate:
print report bad tab
1 2 3 4 5
I want to post or [tab]
guest
You may want to rate the tab now too:
select rating
Please do not post tabs as comments. Select "correction" instead!