Oops, an error
Loading. Please wait.

Stupid Kid Tab

version 2
version 2

Intro

Whole song

Interactive

Video

29,164 views 63 this week
6 commentsread comments
1 2 3 4 5
excellent!
x 15
add to favorites
launch autoscroll
font size
0
reset
how to read this tab
guitar tuner
Tab Pro tools
  • play this tab
  • loop segment
  • change instrument
  • show fretboard
  • metronome
Autoscroll
slow
fast
+/-
esc
set tempo
stop
Contributor
-------------------------------------------------------------------------------
Stupid Kid – Alkaline Trio
-------------------------------------------------------------------------------

The rhythm isn’t showed very well but if you listen to the song you will be
able to figure it out it’s very easy and Alkaline Trio rule!

 INTRO  
e|-X-X---------------------------------|
B|-X-X---------------------------------|
G|-X-X-444--99-88-66-------99-88-66----|
D|-X-X-444--xx-xx-xx--666--xx-xx-xx----|
A|-X-X-222--77-66-44--666--77-66-44----|
E|-X-X----------------444--------------|

VERSE
e|-------------------------|
B|-------------------------|
G|-4444--------------------|
D|-4444--4444--22222-------|
A|-2222--4444--22222-------|
E|-------2222--00000-------|

CHORUS
e|-------------------------------------|
B|-------------------------------------|
G|-444444444---------------------------|
D|-444444444--6666666--444444444-------|
A|-222222222--6666666--444444444-------|
E|------------4444444--222222222-------|

POST CHORUS
e|---------------|
B|---------------|
G|--------4------|
D|-4---2--4------|
A|-4---2--2------|
E|-2---0---------|

INTERLUDE
e|------------------------------------------------------------------|
B|------------------------------------------------------------------|
G|-4444444444--33333333-4444444444--999999--88888888--66666666------|
D|-xxxxxxxxxx--xxxxxxxx-xxxxxxxxxx--xxxxxx--xxxxxxxx--xxxxxxxx------|
A|-2222222222--11111111-2222222222--777777--66666666--44444444------|
E|------------------------------------------------------------------|


Intro x2
VERSE x4
INTRO x2
VERSE x4
CHORUS x3
POST CHORUS 
INTRO x2
VERSE  x4
CHORUS x3
POST CHORUS
INTRO x2
INTERLUDE
CHORUS x3
END ON POST CHORUS!

===============================================================================
comments
print report bad tab
6 comments total. Showing first comments.
0 reply
thisguy wrote on April 6 2006, 01:02 am

Awsome Tab!

Alkaline trio is awsome!

0 reply
Guitar_Chick99 wrote on April 7 2006, 06:43 pm

Great Tab

0 reply
mrpoop wrote on April 12 2006, 07:08 pm

To me, the post chorus sounds more like

e|---------------|
B|---------------|
G|---------------|
D|-2---4--2------|
A|-2---4--2------|
E|-0---3--0------|

and end with
e|----------|
B|----------|
G|---4------|
D|---4------|
A|---2------|
E|----------|
right after the last post chorus

Other than that, this is probably the best tab of this song currently on.

I want to post or [tab]
guest
You may want to rate the tab now too:
select rating
Please do not post tabs as comments. Select "correction" instead!