Oops, an error
Loading. Please wait.

Stupid Kid Tab

version 4
version 4

Whole song

Interactive

Video

554 views 3 this week
no commentswrite comment
1 2 3 4 5
please rate
add to favorites
launch autoscroll
font size
0
reset
how to read this tab
guitar tuner
Tab Pro tools
  • play this tab
  • loop segment
  • change instrument
  • show fretboard
  • metronome
×
Best way to learn
"Stupid Kid"
Autoscroll
slow
fast
+/-
esc
set tempo
stop
Contributor
4. [Stupid Kid] - [02:24]

[Riff 1] - [00:00] - [00:01]
- -------|
- -------|
- -------|
- -xx-0~-
- -xx-0~-
- -xx----

[Riff 2] - [00:01] - [00:09]
- -----------------------------------------------------------------|
- -----------------------------------------------------------------|
- -11111111--9-9-9-8-8-8-8-6-6-----8-8-8-8---9-9-9-8-8-8-8-6-6-----|
- -x-x-x-x-x-x-x-x-x-x-x-x-x-x-x-x-x-x-x-x-x-x-x-x-x-x-x-x-x-x-x-x-|
- -9-9-9-9-x-7-7-7-6-6-6-6-4-4-x-x-6-6-6-6-x-7-7-7-6-6-6-6-4-4-x-x-|
- -7-7-7-7-x-------------------x-x-4-4-4-4-x-------------------x-x-|

[Riff 3] - [00:09] - [00:21]
- ---------------------------------|
- ---------------------------------|
- -11111111----6-6-6-6-----4-4-4-4-|
- -x-x-x-x-----x-x-x-x-----x-x-x-x-|
- -9-9-9-9-----4-4-4-4-----2-2-2-2-|
- -7-7-7-7-----2-2-2-2-----0-0-0-0-|

[Riff 4] - [00:21] - [00:25]
- --------------------------------------|
- --------------------------------------|
- -11111111----6-6-6-6-----4-4-4-4------|
- -x-x-x-x-----x-x-x-x-----x-x-x-x-xxxx-|
- -9-9-9-9-----4-4-4-4-----2-2-2-2-xxxx-|
- -7-7-7-7-----2-2-2-2-----0-0-0-0-xxxx-|

[Riff 2] - [00:25] - [00:33]
[Riff 3] - [00:33] - [00:45]

[Riff 5] - [00:45] - [00:49]
- ---------------------------------------|
- ---------------------------------------|
- -11111111----6-6-6-6------4-4-4-4------|
- -x-x-x-x-----x-x-x-x-xxxx-x-x-x-x-xxxx-|
- -9-9-9-9-----4-4-4-4-xxxx-2-2-2-2-xxxx-|
- -7-7-7-7-----2-2-2-2-xxxx-0-0-0-0-xxxx-|

[Riff 6] - [00:49] - [01:05]
- -----------------------------------------------------------------|
- -----------------------------------------------------------------|
- -111111111111111111111111111111118-8-8-8-8-8-8-8-6-6-6-6-6-6-6-6-|
- -x-x-x-x-x-x-x-x-x-x-x-x-x-x-x-x-x-x-x-x-x-x-x-x-x-x-x-x-x-x-x-x-|
- -9-9-9-9-9-9-9-9-9-9-9-9-9-9-9-9-6-6-6-6-6-6-6-6-4-4-4-4-4-4-4-4-|
- -7-7-7-7-7-7-7-7-7-7-7-7-7-7-7-7-4-4-4-4-4-4-4-4-2-2-2-2-2-2-2-2-|

  -----------------------------------------------------------------|
  -----------------------------------------------------------------|
  -111111111111111111111111111111118-8-8-8-8-8-8-8-6-6-6-6-6-6-6-6-|
  -x-x-x-x-x-x-x-x-x-x-x-x-x-x-x-x-x-x-x-x-x-x-x-x-x-x-x-x-x-x-x-x-|
  -9-9-9-9-9-9-9-9-9-9-9-9-9-9-9-9-6-6-6-6-6-6-6-6-4-4-4-4-4-4-4-4-|
  -7-7-7-7-7-7-7-7-7-7-7-7-7-7-7-7-4-4-4-4-4-4-4-4-2-2-2-2-2-2-2-2-|

  -----------------------------------------------------------------|
  -----------------------------------------------------------------|
  -111111111111111111111111111111118-8-8-8-8-8-8-8-6-6-6-6-6-6-6-6-|
  -x-x-x-x-x-x-x-x-x-x-x-x-x-x-x-x-x-x-x-x-x-x-x-x-x-x-x-x-x-x-x-x-|
  -9-9-9-9-9-9-9-9-9-9-9-9-9-9-9-9-6-6-6-6-6-6-6-6-4-4-4-4-4-4-4-4-|
  -7-7-7-7-7-7-7-7-7-7-7-7-7-7-7-7-4-4-4-4-4-4-4-4-2-2-2-2-2-2-2-2-|

  ---------------|
  ---------------|
  -4~----6~--4~--|
  -x-----x---x---|
  -2~----4~--2~--|
  -0~----2~--0~--|

[Riff 2] - [01:05] - [01:13]
[Riff 3] - [01:13] - [01:27]
[Riff 5] - [01:27] - [01:29]
[Riff 6] - [01:29] - [01:45]

[Riff 7] - [01:45] - [01:53]
- ----------------------------------------------------------------|
- ----------------------------------------------------------------|
- -111111111111----9-9-8-8-8-6-6-6-8-8-8-8-8-8----9-9-8-8-8-6-6-6-|
- -x-x-x-x-x-x--xx-x-x-x-x-x-x-x-x-x-x-x-x-x-x-xx-x-x-x-x-x-x-x-x-|
- -9-9-9-9-9-9--xx-7-7-6-6-6-4-4-4-6-6-6-6-6-6-xx-7-7-6-6-6-4-4-4-|
- -7-7-7-7-7-7--xx-----------------4-4-4-4-4-4-xx-----------------|

[Riff 8] - [01:53] - [02:01]
- -----------------------------------------------------|
- -----------------------------------------------------|
- -444444444444444444444444-33333333-3/444444444444444-|
- -xxxxxxxxxxxxxxxxxxxxxxxx-xxxxxxxx-x-xxxxxxxxxxxxxxx-|
- -222222222222222222222222-11111111-1/222222222222222-|
- -----------------------------------------------------|

  --------------------|
  --------------------|
  -99999999-8888-6666-|
  -xxxxxxxx-xxxx-xxxx-
  -77777777-6666-4444-|
  --------------------|

[Riff 6] - [02:01] - [02:17]

[Riff 9] - [02:17] - [02:24]
- -----|
- -----|
- -11~-
- -x---
- -9~--
- -7~--

[Symbols]
x     Dead Note
PM... Palm Mute (where ... is shown)
~     Let Ring
/     Slide Up
h     Hammer On
\     Slide Down
///   Pickslide Up
\\\   Pickslide Down
b     Bend
r     Release
p     Pull Off
comments
We did not receive enough feedback on this tab! Please rate:
print report bad tab
1 2 3 4 5
I want to post or [tab]
guest
You may want to rate the tab now too:
select rating
Please do not post tabs as comments. Select "correction" instead!