Oops, an error
Loading. Please wait.

Take Lots With Alcohol Bass Tab

version 2
version 2

Whole song

Interactive

1,221 views 3 this week
2 commentsread comments
1 2 3 4 5
please rate
add to favorites
launch autoscroll
font size
0
reset
guitar tuner
Autoscroll
slow
fast
+/-
esc
set tempo
stop
Help us to improve Ultimate-Guitar.com Take our survey!
×
Contributor
Difficulty
novice
----------------------------------------------------------------------------
		   TAKE LOTS WITH ALCOHOL - Alkaline Trio
----------------------------------------------------------------------------

Tabbed By : alfonzthemonkey
e-mail: alfonzothemonkey@hotmail.co.uk

Tuning:standard

wait for drum intro

verse part 1:
G|--------------------------|
D|--------------------------|
A|--------------------55-77-| x5
E|5555-55555-55555-(5)------|

verse part 2:
G|--------------------------|
D|--------------------------|
A|--------------------5555--| x1
E|5555-55555-55555-(5)------|

pre chorus 1:
G|---------------------------------------|
D|-----------------777977779777797-------|
A|44444444-------------------------55-77-| x1
E|--------00000000-----------------------|

verse part 1:
G|--------------------------|
D|--------------------------|
A|--------------------55-77-| x3
E|5555-55555-55555-(5)------|

verse part 2:
G|--------------------------|
D|--------------------------|
A|--------------------5555--| x1
E|5555-55555-55555-(5)------|

pre chorus 2:
G|--------------------------------------|
D|-----------------777977779777797------|
A|44444444------------------------5555--| x1
E|--------00000000----------------------|

pre chorus 3:
G|--------------------------------------------|
D|--------------------------------------------|
A|44444444------------------------------55-77-| x1
E|--------00000000-5555-55555-55555-(5)-------|

chorus:
G|-------------------|
D|-------------------|
A|----7777-5555-7777-| x4
E|5555---------------|

verse part 1:
G|--------------------------|
D|--------------------------|
A|--------------------55-77-| x5
E|5555-55555-55555-(5)------|

verse part 2:
G|--------------------------|
D|--------------------------|
A|--------------------5555--| x1
E|5555-55555-55555-(5)------|

pre chorus 2:
G|--------------------------------------|
D|-----------------777977779777797------|
A|44444444------------------------5555--| x1
E|--------00000000----------------------|

pre chorus 3:
G|--------------------------------------------|
D|--------------------------------------------|
A|44444444------------------------------55-77-| x1
E|--------00000000-5555-55555-55555-(5)-------|

chorus:
G|-------------------|
D|-------------------|
A|----7777-5555-7777-| x4
E|5555---------------|

bridge:
G|------------------------------------|
D|------------------------------------|
A|------------------------------------| x2
E|55555555-00002020-22222222-00000000-|

G|------------------------------------|
D|------------------------------------|
A|---------7777-----------------------| x1
E|55555555-----0000-22222222-00000000-|

G|------------------------------------|
D|------------------------------------|
A|---------77777777-------------------| x1
E|55555555----------22222222-00000000-|

G|------------------------------------|
D|------------------------------------|
A|-------------7777-------------------| x1
E|55555555-0000-----22222222-00000000-|

G|------------------------------|
D|----7777----------------------|
A|------------------------------| x1
E|5555-----00000000-22222222-0~-|

I'm pretty sure this tab is right but please email me with any corrections etc. please rate

| /  slide up
| \  slide down
| h  hammer-on
| p  pull-off
| ~  vibrato
| +  harmonic
| x  Mute note
============================================================================
comments
We did not receive enough feedback on this tab! Please rate:
print report bad tab
1 2 3 4 5
2 comments total.
0 reply
chrisjenks 2,376 wrote on July 11 2008, 07:34 am

good tab. sounds pretty much all correct to me except at the start of every pre-chorus bit i think it should be:

A|-4>-2>- instead of E|-2>-0>-

what do you reckon?

0 reply
chromaticvision 4,942 wrote on July 11 2008, 06:16 pm

I think its. A|-4 to E|-0? just my two cents. it's a pretty good tab. 4*

I want to post or [tab]
guest
You may want to rate the tab now too:
select rating
Please do not post tabs as comments. Select "correction" instead!