Oops, an error
Loading. Please wait.

The American Scream Bass Tab

version 1
version 1

Whole song

Interactive

1,201 views 3 this week
no commentswrite comment
1 2 3 4 5
please rate
add to favorites
launch autoscroll
font size
0
reset
guitar tuner
Tab Pro tools
  • play this tab
  • loop segment
  • change instrument
  • show fretboard
  • metronome
×
Best way to learn
"The American Scream"
Autoscroll
slow
fast
+/-
esc
set tempo
stop
Contributor
Difficulty
intermediate
Alkaline Trio
"The American Scream"
Standard Tuning
From "This Addiction"

Intro
G--------------------------------------|
D--------------------------------------|
A--77777777-99999999-4444444444444444--|
E--------------------------------------| x2

G--------------------------------------------------------------------------|
D--------------------------------------------------------------------------|
A------------4(x16)-----------4(x16)-0(x8)------2(x16)-0(x16)-2(x8---------|3(x8)
E-0(x8)-2(x8)------0(x8)-2(x8)------------0(x8)----------------------------| x2

Chorus
G-------------------------------------------|
D-------------------------------------------|
A-4444--0000-----2222--4444--0000------2222-|
E------------0000-----------------0000------|

G------------------------------------------------------------------------|
D------------------------------------------------------------------------|
A-44444444-00000000----------22222222-0000000000000000-222222222222-3333-|
E-------------------00000000---------------------------------------------|

Intro
G--------------------------------------|
D--------------------------------------|
A--77777777-99999999-4444444444444444--|
E--------------------------------------| x2

Verse
G-------------------------------------------------------------------------|
D-------------------------------------------------------------------------|
A------------4(x16)-----------4(x16)-0(x8)------2(x16)-0(x16)-2(x8--------|3(x8)
E-0(x8)-2(x8)------0(x8)-2(x8)------------0(x8)---------------------------|

Chorus
G-------------------------------------------|
D-------------------------------------------|
A-4444--0000-----2222--4444--0000------2222-|
E------------0000-----------------0000------|

G------------------------------------------------------------------------|
D------------------------------------------------------------------------|
A-44444444-00000000----------22222222-0000000000000000-222222222222-3333-|
E-------------------00000000---------------------------------------------|
Repeat Chorus section

Bridge
G----------------------------------------------------------------------|
D-222222222222-2----------77777777------4-2------4-2-------------------|
A---------------2-00000000000000002-4444----2222-----00000000/12121212-|
E----------------------------------------------------------------------|

G-----------------------------------------------------------------|
D-----2222----2----------77777777------4-2------4-2---7-6-4-6-4---|
A-0000----0000-2-00000000000000002-4444----2222-----00----------7-|
E-----------------------------------------------------------------|

Chorus
G-----------------------------------------------|
D-----------------------------------2(x8--------|4(x8)
A-4(x8)-0(x8)------2(x8)-4(x8)-0(x8)------------|
E-------------0(x8)-----------------------------|

G--------------------------------------------|
D--------------------------------------------|
A-4(x8)-0(x8)-----2(x8)-0(x16)-2(x16)-3333-4-|
E------------0(x8)---------------------------|
comments
We did not receive enough feedback on this tab! Please rate:
print report bad tab
1 2 3 4 5
I want to post or [tab]
guest
You may want to rate the tab now too:
select rating
Please do not post tabs as comments. Select "correction" instead!