Oops, an error
Loading. Please wait.

The Metro Bass Tab

version 1
version 1

Whole song

Interactive

743 views 3 this week
2 commentsread comments
1 2 3 4 5
x 5
add to favorites
launch autoscroll
font size
0
reset
guitar tuner
Autoscroll
slow
fast
+/-
esc
set tempo
stop
Help us to improve Ultimate-Guitar.com Take our survey!
×
Alkaline Trio - The Metro
Tabbed By: Chris
EMail: pnutbutter311@netscape.net


Intro 
G|---------------------------------------------------------------------------| 
D|---------------------------------------------------------------------------| 
A|-2>---222222222222---------------------------------------------------------| 
E|---------------------------------------------------------------------------| 

Pre-Verse x4 
G|---------------------------------------------------------------------------| 
D|---------------------------------------------------------------------------| 
A|----22-------55-00-33-22---------------------------------------------------| 
E|-00----22-33---------------------------------------------------------------| 

Verse x8 
G|---------------------------------------------------------------------------| 
D|---------------------------------------------------------------------------| 
A|----22-------55-00-33-22---------------------------------------------------| 
E|-00----22-33---------------------------------------------------------------| 

Chorus (the only part im not sure about) 
G|---------------------------------------------------------------------------| 
D|---------------------------------------------------------------------------| 
A|-2>-5>----8>-2>-5>-----2>-5>----8>-2>-5555------2>-------------------------| 
E|-------3>----------3>>-------3>------------3333----------------------------| 

Fill After Second Chorus 
G|---------------------------------------------------------------------------| 
D|---------------------------------------------------------------------------| 
A|-222222222222--------------------------------------------------------------| 
E|---------------------------------------------------------------------------| 

> = x8 
>> = x16 

Order: 
Intro 
Pre-Verse 
Verse 
Chorus 
Pre-Verse 
Verse 
Chorus 
Fill 
Verse 
Chorus 
Pre-Verse 
Verse 
Chorus
Suggest correction
comments
print report bad tab
2 comments total.
0 reply
Love4Fire 183 Jan 02, 2012 01:32 PM

I know this possible correction is years late, but maybe the chorus is more like this?


G|--------------------------------------------------------|
D|---------------------------------3-3-3-3---------3-3-3-3|
A|-0>-2>----5>-------0>-2>--------------------------------|
E|-------3>----------------5-5-5-5---------5-5-5-5--------|

0 reply
Love4Fire 183 Jan 02, 2012 01:34 PM

Whoops! Meant to put:


G|--------------------------------------------------------|
D|---------------------------------5-5-5-5---------5-5-5-5|
A|-0>-2>----5>-------0>-2>--------------------------------|
E|-------3>----------------3-3-3-3---------3-3-3-3--------|

guest
You may want to rate the tab now too:
select rating
Wanna post a correction for this tab? Suggest correction