Oops, an error
Loading. Please wait.

The Metro Tab

version 2
version 2

Whole song

Interactive

463 views 1 this week
no commentswrite comment
1 2 3 4 5
please rate
add to favorites
launch autoscroll
font size
0
reset
how to read this tab
guitar tuner
Tab Pro tools
  • play this tab
  • loop segment
  • change instrument
  • show fretboard
  • metronome
×
Best way to learn
"The Metro"
Autoscroll
slow
fast
+/-
esc
set tempo
stop
Contributor
The Metro (cover)
Alkaline trio
Tabber: Notoriousdoc

God, the trouble I've had with this tab. I decided to make my own because all the other 
I've found just don't sound right
Anyway, peace out and enjoy the tab

Contact me at notoriousdoc@hotmail.co.uk for help etc. but cut me a bit of slack, this 
my first EVER one

INTRO *x16
1)------------------------------|
2)------------------------------|
3)------------------------------|
4)-7*--x--7*--------------------|
5)-7*--x--7*--------------------|
6)-5*--x--5*--------------------|


MAIN RIFF
1)----------------------------------------------------------|
2)----------------------------------------------------------|
3)---------------------------7-7----------------------------|
4)--------9-9----------------------7-7--10-10--9-9----------|
5)--7-7---------9-9--10-10----------------------------------|
6)----------------------------------------------------------|


I'm alone, sitting with my empty glass
My four walls follow me through my past
I was on a Paris train.  I emerged in London rain
and you were waiting there, swimming through apologies


CHORUS    *x8
1)----------------------------------------------------------|
2)----------------------------------------------------------|
3)-----------------7*---------------------------------------|
4)--7*--9*--5*--7*------------------------------------------|
5)--7*--9*--5*--5*------------------------------------------|
6)--5*--7*--3*----------------------------------------------|
I remember searching for the perfect words

1)------------------------------------------------------|
2)------------------------------------------------------|
3)------------------------------------------------------|
4)--7*--9*--5*-5*---------------------------------------|
5)--7*--9*--5*-5*---------------------------------------|
6)--5*--7*--3*-3*---------------------------------------|
I was hoping you might change your mind

1)----------------------------------------------------------|
2)----------------------------------------------------------|
3)-----------------7*---------------------------------------|
4)--7*--9*--5*--7*------------------------------------------|
5)--7*--9*--5*--5*------------------------------------------|
6)--5*--7*--3*----------------------------------------------|
I remember a soldier sleeping next to me

1)--------------------------------------------------------|
2)--------------------------------------------------------|
3)--------------------------------------------------------|
4)--7-7-7-7--9--5--4--2-----------------------------------|
5)--7-7-7-7--9--5--4--2-----------------------------------|
6)--5-5-5-5--7--3--2--0-----------------------------------|
Riding on the Metro


Lead Riff
1)--12---7---8---5---7---3---5---2---0---------------------| x2
2)---------------------------------------------------------|
3)---------------------------------------------------------|
4)---------------------------------------------------------|
5)---------------------------------------------------------|
6)---------------------------------------------------------|


You wore white, smiling as you took my hand
and so we moved, we spoke of wintertime in France
Minutes passed with shallow words.  Years have passed and still the hurt
I can see you now, smiling as you pulled away.

CHORUS    *x8
1)----------------------------------------------------------|
2)----------------------------------------------------------|
3)-------------7*-------------------------------------------|
4)--7*--9*--5*--7*------------------------------------------|
5)--7*--9*--5*--5*------------------------------------------|
6)--5*--7*--3*----------------------------------------------|
I remember the letter wrinkled in my hand

1)----------------------------------------------------------|
2)----------------------------------------------------------|
3)----------------------------------------------------------|
4)--7*--9*--5*-5*-------------------------------------------|
5)--7*--9*--5*-5*-------------------------------------------|
6)--5*--7*--3*-3*-------------------------------------------|
"I love you always" filled my eyes

1)----------------------------------------------------------|
2)----------------------------------------------------------|
3)-----------------7*---------------------------------------|
4)--7*--9*--5*--7*------------------------------------------|
5)--7*--9*--5*--5*------------------------------------------|
6)--5*--7*--3*----------------------------------------------|
I remember the night we walked along the Seine

1)----------------------------------------------------------|
2)----------------------------------------------------------|
3)----------------------------------------------------------|
4)--7-7-7-7--9--5--4--2*------------------------------------|
5)--7-7-7-7--9--5--4--2*------------------------------------|
6)--5-5-5-5--7--3--2--0*------------------------------------|
Riding on the Metro


1)--7----5--7----7----12--7-------12--7--8-5-7-3-------------------|
2)-----------------------------------------------------------------|
3)-----------------------------------------------------------------|
4)-----------------------------------------------------------------|
5)-----------------------------------------------------------------|
6)-----------------------------------------------------------------|

1)-12--7--8-5-7-3----12--7--17-15-14-15-12---------------------------|
2)-------------------------------------------------------------------|
3)-------------------------------------------------------------------|
4)-------------------------------------------------------------------|
5)-------------------------------------------------------------------|
6)-------------------------------------------------------------------|


CHORUS
I remember a feeling coming over me
The soldier turned and looked away
I remember hating you for loving me
Riding on the Metro


Lead Riff
1)--12---7---8---5---7---3---5---2---0---------------------| x2
2)---------------------------------------------------------|
3)---------------------------------------------------------|
4)---------------------------------------------------------|
5)---------------------------------------------------------|
6)---------------------------------------------------------|


I'm alone, sitting with a broken glass
My four walls follow me through my past
I was on a Paris train.  I emerged in London rain
and you were waiting there, swimming through apologies
(Suck it asshole)


CHORUS    *x8
1)----------------------------------------------------------|
2)----------------------------------------------------------|
3)-----------------7*---------------------------------------|
4)--7*--9*--5*--7*------------------------------------------|
5)--7*--9*--5*--5*------------------------------------------|
6)--5*--7*--3*----------------------------------------------|
I remember searching for the perfect words

1)----------------------------------------------------------|
2)----------------------------------------------------------|
3)----------------------------------------------------------|
4)--7*--9*--5*-5*-------------------------------------------|
5)--7*--9*--5*-5*-------------------------------------------|
6)--5*--7*--3*-3*-------------------------------------------|
I was hoping you might change your mind

1)----------------------------------------------------------|
2)----------------------------------------------------------|
3)-----------------7*---------------------------------------|
4)--7*--9*--5*--7*------------------------------------------|
5)--7*--9*--5*--5*------------------------------------------|
6)--5*--7*--3*----------------------------------------------|
I remember a soldier sleeping next to me

1)--------------------------------------------------------|
2)--------------------------------------------------------|
3)--------------------------------------------------------|
4)--7-7-7-7--9--5--4--2-----------------------------------|
5)--7-7-7-7--9--5--4--2-----------------------------------|
6)--5-5-5-5--7--3--2--0-----------------------------------|
Riding on the Metro

Ow!
comments
We did not receive enough feedback on this tab! Please rate:
print report bad tab
1 2 3 4 5
I want to post or [tab]
guest
You may want to rate the tab now too:
select rating
Please do not post tabs as comments. Select "correction" instead!