Oops, an error
Loading. Please wait.

The Metro Tab

version 3
version 3

Whole song

Interactive

789 views 1 this week
no commentswrite comment
1 2 3 4 5
please rate
add to favorites
launch autoscroll
font size
0
reset
how to read this tab
guitar tuner
Tab Pro tools
  • play this tab
  • loop segment
  • change instrument
  • show fretboard
  • metronome
×
Best way to learn
"The Metro"
Autoscroll
slow
fast
+/-
esc
set tempo
stop
Contributor
Artist: Alkaline Trio
Song: Metro
Tuning: Standard
Tabbed by Blinkaholic

I tabbed this by ear, but it is 100% correct.
Any questions or comments, email me at: josh.americanidiot@gmail.com

Intro
|-----------------------------------------------------------------|
|-----------------------------------------------------------------|
|-4-4-4-4-4-4-4-4-4-4-4-4-4---------4-4-4-4-4-4-4-4-4-4-4-4-4-4-4-|
|-4-4-4-4-4-4-4-4-4-4-4-4-4---------4-4-4-4-4-4-4-4-4-4-4-4-4-4-4-|
|-2-2-2-2-2-2-2-2-2-2-2-2-2---------2-2-2-2-2-2-2-2-2-2-2-2-2-2-2-|
|-----------------------------------------------------------------|

|-----------------------------------------------| x4
|-----12-12-------------15-15\10-10-13-13-12-12-|
|-9-9-------11-11-12-12-------------------------|
|-----------------------------------------------|
|-----------------------------------------------|
|-----------------------------------------------|

Verse 1
|-----------------------------------------------|
|-----------------------------------------------|
|-4~--------------------------------------------|
|-4~------------------------------*pick-scrape\-|
|-2~--------------------------------------------|
|--------------(Bass and Drums)-----------------|

Chorus 1
|-----------------------------------------------------------------|
|-----------------------------------------------------------------|
|-------------------------------------------------7-7-7-7-7-7-7-7-|
|-7-7-7-7-7-7-7-7-9-9-9-9-9-9-9-9-5-5-5-5-5-5-5-5-x-x-x-x-x-x-x-x-|
|-7-7-7-7-7-7-7-7-9-9-9-9-9-9-9-9-5-5-5-5-5-5-5-5-5-5-5-5-5-5-5-5-|
|-5-5-5-5-5-5-5-5-7-7-7-7-7-7-7-7-3-3-3-3-3-3-3-3-----------------|

|-----------------------------------------------------------------|
|-----------------------------------------------------------------|
|-----------------------------------------------------------------|
|-7-7-7-7-7-7-7-7-9-9-9-9-9-9-9-9-5-5-5-5-5-5-5-5-5-5-5-5-5-5-5-5-|
|-7-7-7-7-7-7-7-7-9-9-9-9-9-9-9-9-5-5-5-5-5-5-5-5-5-5-5-5-5-5-5-5-|
|-5-5-5-5-5-5-5-5-7-7-7-7-7-7-7-7-3-3-3-3-3-3-3-3-3-3-3-3-3-3-3-3-|

|-----------------------------------------------------------------|
|-----------------------------------------------------------------|
|-------------------------------------------------7-7-7-7-7-7-7-7-|
|-7-7-7-7-7-7-7-7-9-9-9-9-9-9-9-9-5-5-5-5-5-5-5-5-x-x-x-x-x-x-x-x-|
|-7-7-7-7-7-7-7-7-9-9-9-9-9-9-9-9-5-5-5-5-5-5-5-5-5-5-5-5-5-5-5-5-|
|-5-5-5-5-5-5-5-5-7-7-7-7-7-7-7-7-3-3-3-3-3-3-3-3-----------------|

|-----------------------------------------------------------------|
|-----------------------------------------------------------------|
|-----------------------------------------------------------------|
|-7-7-7-7-7-7-7-7-9-9-9-9-5-5-7-7-9-9-9-9-9-9-9-9-9-9-9-9-9-9-9---|
|-7-7-7-7-7-7-7-7-9-9-9-9-5-5-7-7-9-9-9-9-9-9-9-9-9-9-9-9-9-9-9---|
|-5-5-5-5-5-5-5-5-7-7-7-7-3-3-5-5-7-7-7-7-7-7-7-7-7-7-7-7-7-7-7---|

Post-Chorus
|-12-----------------------| x2
|----12-13-10-12-8-10-7----|
|-----------------------9~-|
|--------------------------|
|--------------------------|
|--------------------------|

Verse 2

Bass and Drums first, then:

|-------------------------------------| x3
|-------------------------------------|
|-------------------7-7---------------|
|-----9-9---------------7-7-10-10-9-9-|
|-7-7-----9-9-10-10-------------------|
|-------------------------------------|
  * * * * * * * * * * * * * * * * * *

|-----------------------------------|
|-----------------------------------|
|-------------------7-*pick-scrape\-|
|-----9-9---------------------------|
|-7-7-----9-9-10-10-----------------|
|-----------------------------------|

Chorus 2
|-----------------------------------------------------------------|
|-----------------------------------------------------------------|
|-------------------------------------------------7-7-7-7-7-7-7-7-|
|-7-7-7-7-7-7-7-7-9-9-9-9-9-9-9-9-5-5-5-5-5-5-5-5-x-x-x-x-x-x-x-x-|
|-7-7-7-7-7-7-7-7-9-9-9-9-9-9-9-9-5-5-5-5-5-5-5-5-5-5-5-5-5-5-5-5-|
|-5-5-5-5-5-5-5-5-7-7-7-7-7-7-7-7-3-3-3-3-3-3-3-3-----------------|

|-----------------------------------------------------------------|
|-----------------------------------------------------------------|
|-----------------------------------------------------------------|
|-7-7-7-7-7-7-7-7-9-9-9-9-9-9-9-9-5-5-5-5-5-5-5-5-5-5-5-5-5-5-5-5-|
|-7-7-7-7-7-7-7-7-9-9-9-9-9-9-9-9-5-5-5-5-5-5-5-5-5-5-5-5-5-5-5-5-|
|-5-5-5-5-5-5-5-5-7-7-7-7-7-7-7-7-3-3-3-3-3-3-3-3-3-3-3-3-3-3-3-3-|

|-----------------------------------------------------------------|
|-----------------------------------------------------------------|
|-------------------------------------------------7-7-7-7-7-7-7-7-|
|-7-7-7-7-7-7-7-7-9-9-9-9-9-9-9-9-5-5-5-5-5-5-5-5-x-x-x-x-x-x-x-x-|
|-7-7-7-7-7-7-7-7-9-9-9-9-9-9-9-9-5-5-5-5-5-5-5-5-5-5-5-5-5-5-5-5-|
|-5-5-5-5-5-5-5-5-7-7-7-7-7-7-7-7-3-3-3-3-3-3-3-3-----------------|

|-----------------------------------------------------------------|
|-----------------------------------------------------------------|
|-----------------------------------------------------------------|
|-7-7-7-7-7-7-7-7-9-9-9-9-5-5-7-7-9-9-9-9-9-9-9-9-9-9-9-9-9-9-9---|
|-7-7-7-7-7-7-7-7-9-9-9-9-5-5-7-7-9-9-9-9-9-9-9-9-9-9-9-9-9-9-9---|
|-5-5-5-5-5-5-5-5-7-7-7-7-3-3-5-5-7-7-7-7-7-7-7-7-7-7-7-7-7-7-7---|

Bridge
|--------------------------12~------x1|-12-----------------x2-|-12------19-17-14-15-12~-|
|-12~--------12~----12~--------12~----|-----12--13-10-12-8----|-----12------------------|
|--------14~--------------------------|-----------------------|-------------------------|
|-------------------------------------|-----------------------|-------------------------|
|-------------------------------------|-----------------------|-------------------------|
|-------------------------------------|-----------------------|-*Pick Scrape after-(12)-|

Chorus 3
|-----------------------------------------------------------------|
|-----------------------------------------------------------------|
|-------------------------------------------------7-7-7-7-7-7-7-7-|
|-7-7-7-7-7-7-7-7-9-9-9-9-9-9-9-9-5-5-5-5-5-5-5-5-x-x-x-x-x-x-x-x-|
|-7-7-7-7-7-7-7-7-9-9-9-9-9-9-9-9-5-5-5-5-5-5-5-5-5-5-5-5-5-5-5-5-|
|-5-5-5-5-5-5-5-5-7-7-7-7-7-7-7-7-3-3-3-3-3-3-3-3-----------------|

|-----------------------------------------------------------------|
|-----------------------------------------------------------------|
|-----------------------------------------------------------------|
|-7-7-7-7-7-7-7-7-9-9-9-9-9-9-9-9-5-5-5-5-5-5-5-5-5-5-5-5-5-5-5-5-|
|-7-7-7-7-7-7-7-7-9-9-9-9-9-9-9-9-5-5-5-5-5-5-5-5-5-5-5-5-5-5-5-5-|
|-5-5-5-5-5-5-5-5-7-7-7-7-7-7-7-7-3-3-3-3-3-3-3-3-3-3-3-3-3-3-3-3-|

|-----------------------------------------------------------------|
|-----------------------------------------------------------------|
|-------------------------------------------------7-7-7-7-7-7-7-7-|
|-7-7-7-7-7-7-7-7-9-9-9-9-9-9-9-9-5-5-5-5-5-5-5-5-x-x-x-x-x-x-x-x-|
|-7-7-7-7-7-7-7-7-9-9-9-9-9-9-9-9-5-5-5-5-5-5-5-5-5-5-5-5-5-5-5-5-|
|-5-5-5-5-5-5-5-5-7-7-7-7-7-7-7-7-3-3-3-3-3-3-3-3-----------------|

|-----------------------------------------------------------------|
|-----------------------------------------------------------------|
|-----------------------------------------------------------------|
|-7-7-7-7-7-7-7-7-9-9-9-9-5-5-7-7-9-9-9-9-9-9-9-9-9-9-9-9-9-9-9---|
|-7-7-7-7-7-7-7-7-9-9-9-9-5-5-7-7-9-9-9-9-9-9-9-9-9-9-9-9-9-9-9---|
|-5-5-5-5-5-5-5-5-7-7-7-7-3-3-5-5-7-7-7-7-7-7-7-7-7-7-7-7-7-7-7---|

Post-Chorus
|-12-----------------------| x2
|----12-13-10-12-8-10-7----|
|-----------------------9~-|
|--------------------------|
|--------------------------|
|--------------------------|

Verse 3 - Bass and Drums only (Pick Scrape at the end)

Chorus 4
|-----------------------------------------------------------------|
|-----------------------------------------------------------------|
|-------------------------------------------------7-7-7-7-7-7-7-7-|
|-7-7-7-7-7-7-7-7-9-9-9-9-9-9-9-9-5-5-5-5-5-5-5-5-x-x-x-x-x-x-x-x-|
|-7-7-7-7-7-7-7-7-9-9-9-9-9-9-9-9-5-5-5-5-5-5-5-5-5-5-5-5-5-5-5-5-|
|-5-5-5-5-5-5-5-5-7-7-7-7-7-7-7-7-3-3-3-3-3-3-3-3-----------------|

|-----------------------------------------------------------------|
|-----------------------------------------------------------------|
|-----------------------------------------------------------------|
|-7-7-7-7-7-7-7-7-9-9-9-9-9-9-9-9-5-5-5-5-5-5-5-5-5-5-5-5-5-5-5-5-|
|-7-7-7-7-7-7-7-7-9-9-9-9-9-9-9-9-5-5-5-5-5-5-5-5-5-5-5-5-5-5-5-5-|
|-5-5-5-5-5-5-5-5-7-7-7-7-7-7-7-7-3-3-3-3-3-3-3-3-3-3-3-3-3-3-3-3-|

|-----------------------------------------------------------------|
|-----------------------------------------------------------------|
|-------------------------------------------------7-7-7-7-7-7-7-7-|
|-7-7-7-7-7-7-7-7-9-9-9-9-9-9-9-9-5-5-5-5-5-5-5-5-x-x-x-x-x-x-x-x-|
|-7-7-7-7-7-7-7-7-9-9-9-9-9-9-9-9-5-5-5-5-5-5-5-5-5-5-5-5-5-5-5-5-|
|-5-5-5-5-5-5-5-5-7-7-7-7-7-7-7-7-3-3-3-3-3-3-3-3-----------------|

|-----------------------------------------------------------------|
|-----------------------------------------------------------------|
|-----------------------------------------------------------------|
|-7-7-7-7-7-7-7-7-9-9-9-9-5-5-7-7-9-9-9-9-9-9-9-9-9-9-9-9-9-9-9---|
|-7-7-7-7-7-7-7-7-9-9-9-9-5-5-7-7-9-9-9-9-9-9-9-9-9-9-9-9-9-9-9---|
|-5-5-5-5-5-5-5-5-7-7-7-7-3-3-5-5-7-7-7-7-7-7-7-7-7-7-7-7-7-7-7---|

END
comments
We did not receive enough feedback on this tab! Please rate:
print report bad tab
1 2 3 4 5
I want to post or [tab]
guest
You may want to rate the tab now too:
select rating
Please do not post tabs as comments. Select "correction" instead!