Oops, an error
Loading. Please wait.

The Temptation Of St Anthony tab

1,739 views 1 this week
no commentswrite comment
1 2 3 4 5
2 more votes to show rating
add to favorites
×
Save as Personal and add changes to this tab that will be seen only by you. Learn more ›
×
You can save this tab as Personal to edit and correct it or add notes. All changes will be seen only by you. Learn more »
launch autoscroll
font size
0
reset
how to read this tab
guitar tuner
edit
Autoscroll
slow
fast
+/-
esc
set tempo
stop
Alkaline Trio - The Temptation Of St. Anthony

Tabbed By: SpreadSomeLove
Standard Tuning

Intro (Lead Guitar)
e|-----------------------------------------------------|
B|-----------------------------------------------------|
G|9-9--7--4-4---4-4--4-4-4-4-9---7--7-7---7-7--7-7-7-7-|
D|-----------------------------------------------------|
A|7-7--5--2-2---2-2--2-2-2-2-7---5--5-5---5-5--5-5-5-5-|
E|-----------------------------------------------------|

e|-----------------------------------------------------|
B|-----------------------------------------------------|
G|9-9--7--4-4---4-4--4-4-4-4-5---4---7-----------------|
D|-----------------------------------------------------|
A|7-7--5--2-2---2-2--2-2-2-2-3---2---5-----------------|
E|-----------------------------------------------------|

Intro (Rhythm Guitar)
e|---------------------------------------------------------------|
B|---------------------------------------------------------------|
G|--------------------------------5-5-5-5-5-5-7--7-7-7-7-7-7-7-7-|
D|2-2-2-2-2-2-2-2-2-2-2-2-2-2-2-2-5-5-5-5-5-5-7--7-7-7-7-7-7-7-7-|
A|2-2-2-2-2-2-2-2-2-2-2-2-2-2-2-2-3-3-3-3-3-3-5--5-5-5-5-5-5-5-5-|
E|0-0-0-0-0-0-0-0-0-0-0-0-0-0-0-0--------------------------------|

e|----------------------------------------------------------|
B|----------------------------------------------------------|
G|--------------------------------5---4---7-----------------|
D|2-2-2-2-2-2-2-2-2-2-2-2-2-2-2-2-5---4---7-----------------|
A|2-2-2-2-2-2-2-2-2-2-2-2-2-2-2-2-3---2---5-----------------|
E|0-0-0-0-0-0-0-0-0-0-0-0-0-0-0-0---------------------------|

Verse
e|--------------------------------------------------------------------------|
B|--------------------------------------------------------------------------|
G|--------------------------------------------------------------------------|
D|------------------7--------4----5----------------------7--------2----4----|
A|2------------5----5--------2----3----2------------5----5--------0----2----|
E|0------------3-----------------------0------------3-----------------------|

e|----------------------------------------------------------------|
B|----------------------------------------------------------------|
G|5-5-5-5-5-5-5-5-5-5-5-5-5-5-5-5-----------------7-7-7-7-7-7-7-7-|
D|5-5-5-5-5-5-5-5-5-5-5-5-5-5-5-5-5-5-5-5-5-5-5-5-7-7-7-7-7-7-7-7-|
A|3-3-3-3-3-3-3-3-3-3-3-3-3-3-3-3-5-5-5-5-5-5-5-5-5-5-5-5-5-5-5-5-|
E|--------------------------------3-3-3-3-3-3-3-3-----------------|
  . . . . . . . . . . . . . . . . . . . . . . . . . . . . . . . . 

e|----------------------------------------------------------------|
B|----------------------------------------------------------------|
G|5-5-5-5-5-5-5-5-5-5-5-5-5-5-5-5-5-5-5-5-5-5-5-5-7-7-7-7-7-7-7-7-|
D|5-5-5-5-5-5-5-5-5-5-5-5-5-5-5-5-5-5-5-5-5-5-5-5-7-7-7-7-7-7-7-7-|
A|3-3-3-3-3-3-3-3-3-3-3-3-3-3-3-3-3-3-3-3-3-3-3-3-5-5-5-5-5-5-5-5-|
E|----------------------------------------------------------------|
  . . .   . .     . . .   . .     . . .   . .

Chorus
e|----------------------------------------------------------------|
B|----------------------------------------------------------------|
G|--------------------------------5-5-5-5-5-5-5-5-7-7-7-7-7-7-7-7-|
D|5-5-5-5-5-5-5-5-5-5-5-5-5-5-5-5-5-5-5-5-5-5-5-5-7-7-7-7-7-7-7-7-|
A|5-5-5-5-5-5-5-5-5-5-5-5-5-5-5-5-3-3-3-3-3-3-3-3-5-5-5-5-5-5-5-5-|
E|3-3-3-3-3-3-3-3-3-3-3-3-3-3-3-3---------------------------------|

e|----------------------------------------------------------------|
B|----------------------------------------------------------------|
G|9-9-9-9-9-9-9-9-9-9-9-9-9-9-9-9-5-5-5-5-5-5-5-5-7-7-7-7-7-7-7-7-|
D|9-9-9-9-9-9-9-9-9-9-9-9-9-9-9-9-5-5-5-5-5-5-5-5-7-7-7-7-7-7-7-7-|
A|7-7-7-7-7-7-7-7-7-7-7-7-7-7-7-7-3-3-3-3-3-3-3-3-5-5-5-5-5-5-5-5-|
E|----------------------------------------------------------------|

e|----------------------------------------------------------------|
B|----------------------------------------------------------------|
G|--------------------------------5-5-5-5-5-5-5-5-7-7-7-7-7-7-7-7-|
D|5-5-5-5-5-5-5-5-5-5-5-5-5-5-5-5-5-5-5-5-5-5-5-5-7-7-7-7-7-7-7-7-|
A|5-5-5-5-5-5-5-5-5-5-5-5-5-5-5-5-3-3-3-3-3-3-3-3-5-5-5-5-5-5-5-5-|
E|3-3-3-3-3-3-3-3-3-3-3-3-3-3-3-3---------------------------------|

e|----------------------------------------------------------------|
B|----------------------------------------------------------------|
G|9-9-9-9-9-9-9-9-5-5-5-5-5-5-5-5-7-7-7-7-7-7-7-7-7-7-7-7-7-7-7-7-|
D|9-9-9-9-9-9-9-9-5-5-5-5-5-5-5-5-7-7-7-7-7-7-7-7-7-7-7-7-7-7-7-7-|
A|7-7-7-7-7-7-7-7-3-3-3-3-3-3-3-3-5-5-5-5-5-5-5-5-5-5-5-5-5-5-5-5-|
E|----------------------------------------------------------------|

Pre-Verse (Lead Guitar)
e|-----------------------------------------------------|
B|-----------------------------------------------------|
G|9-9--7--4-4---4-4--4-4-4-4-9---7--7-7---7-7--7-7-7-7-|
D|-----------------------------------------------------|
A|7-7--5--2-2---2-2--2-2-2-2-7---5--5-5---5-5--5-5-5-5-|
E|-----------------------------------------------------|


e|-----------------------------------------------------|
B|-----------------------------------------------------|
G|12-12--11-9-9---9-9--9-9-9-9-12---11--7--------------|
D|-----------------------------------------------------|
A|10-10--9--7-7---7-7--7-7-7-7-10---9---5--------------|
E|-----------------------------------------------------|

Pre-Verse (Rhythm Guitar)
e|---------------------------------------------------------------|
B|---------------------------------------------------------------|
G|--------------------------------5-5-5-5-5-5-7--7-7-7-7-7-7-7-7-|
D|2-2-2-2-2-2-2-2-2-2-2-2-2-2-2-2-5-5-5-5-5-5-7--7-7-7-7-7-7-7-7-|
A|2-2-2-2-2-2-2-2-2-2-2-2-2-2-2-2-3-3-3-3-3-3-5--5-5-5-5-5-5-5-5-|
E|0-0-0-0-0-0-0-0-0-0-0-0-0-0-0-0--------------------------------|

e|----------------------------------------------------------|
B|----------------------------------------------------------|
G|--------------------------------12---11--7----------------|
D|2-2-2-2-2-2-2-2-2-2-2-2-2-2-2-2-12---11--7----------------|
A|2-2-2-2-2-2-2-2-2-2-2-2-2-2-2-2-10---9---5----------------|
E|0-0-0-0-0-0-0-0-0-0-0-0-0-0-0-0---------------------------|

Repeat Verse

Repeat Chorus (Repeat last part 2x)

Bridge
e|------------------------------------------------------------------------------|
B|------------------------------------------------------------------------------|
G|9------------------------------------------------------------5-5----5-5-------|
D|9----------------9---7---5---4-------------2-2----2-2--------5-5----5-5-------|
A|7----------------7---5---3---2---7--5------2-2----2-2--------3-3----3-3-------|
E|---------------------------------5--3------0-0----0-0-------------------------|

e|----------------------------------------------------------------|
B|----------------------------------------------------------------|
G|9-9-9-9-9-9-9-9-9-9-9-9-9-9-9-9-9-9-9-9-9-9-9-9-9-9-9-9-9-9-9-9-|
D|9-9-9-9-9-9-9-9-9-9-9-9-9-9-9-9-9-9-9-9-9-9-9-9-9-9-9-9-9-9-9-9-|
A|7-7-7-7-7-7-7-7-7-7-7-7-7-7-7-7-7-7-7-7-7-7-7-7-7-7-7-7-7-7-7-7-|
E|----------------------------------------------------------------|
  . . . . . . . . . . . . . . . . . . . . . . . . . . . . . . . .

"It's over now until it happens again..." Part
e|----------------------------------------------------------------|
B|----------------------------------------------------------------|
G|----------------------------------------------------------------|
D|2-2-2-2-2-2-2-2-2-2-2-2-2-2-2-2-2-2-2-2-2-2-2-2-2-2-2-2-2-2-2-2-|
A|2-2-2-2-2-2-2-2-2-2-2-2-2-2-2-2-2-2-2-2-2-2-2-2-2-2-2-2-2-2-2-2-|
E|0-0-0-0-0-0-0-0-0-0-0-0-0-0-0-0-0-0-0-0-0-0-0-0-0-0-0-0-0-0-0-0-|
  . . . . . . . . . . . . . . . . . . . . . . . . . . . . . . . .

e|----------------------------------------------------------------|
B|----------------------------------------------------------------|
G|5-5-5-5-5-5-5-5-5-5-5-5-5-5-5-5-7-7-7-7-7-7-7-7-9-9-9-9-9-9-9-9-| Repeat Whole
D|5-5-5-5-5-5-5-5-5-5-5-5-5-5-5-5-7-7-7-7-7-7-7-7-9-9-9-9-9-9-9-9-| Part 2x
A|3-3-3-3-3-3-3-3-3-3-3-3-3-3-3-3-5-5-5-5-5-5-5-5-7-7-7-7-7-7-7-7-|
E|----------------------------------------------------------------|
  . . . . . . . . . . . . . . . . . . . . . . . . . . . . . . . .

e|----------------------------------------------------------------|
B|----------------------------------------------------------------|
G|--------------------------------5-5-5-5-5-5-5-5-7-7-7-7-7-7-7-7-|
D|2-2-2-2-2-2-2-2-2-2-2-2-2-2-2-2-5-5-5-5-5-5-5-5-7-7-7-7-7-7-7-7-|
A|2-2-2-2-2-2-2-2-2-2-2-2-2-2-2-2-3-3-3-3-3-3-3-3-5-5-5-5-5-5-5-5-|
E|0-0-0-0-0-0-0-0-0-0-0-0-0-0-0-0---------------------------------|
  . . . . . . . . . . . . . . . . . . . . . . . . . . . . . . . . 

e|---------------------------------------------------------|
B|---------------------------------------------------------|
G|--------------------------------5-5-5-5-5-5-5-5-7--------|
D|2-2-2-2-2-2-2-2-2-2-2-2-2-2-2-2-5-5-5-5-5-5-5-5-7--------|
A|2-2-2-2-2-2-2-2-2-2-2-2-2-2-2-2-3-3-3-3-3-3-3-3-5--------|
E|0-0-0-0-0-0-0-0-0-0-0-0-0-0-0-0--------------------------|
  . . . . . . . . . . . . . . . . . . . . . . . . 

Bridge (Lead Guitar)
e|----------------------------------------------------------------|
B|----------------------------------------------------------------|
G|--------------------------------9-9-9-9-9-9-9-9-9-9-9-9-9-9-9-9-|
D|----------------------------------------------------------------|
A|----------------------------------------------------------------|
E|----------------------------------------------------------------|

"It's over now..." Part (Lead Guitar)
e|---------------------------------------------------------------|
B|---------------------------------------------------------------|
G|9-9-9-9-9-9-9-9-9-9-9-9-9-9-9-9-9-9-9-9-9-9-9-9-9-9-9-9-9-9----|
D|----------------------------------------------------------12---|
A|---------------------------------------------------------------|
E|---------------------------------------------------------------|

e|-----------------------------------------------------------------|
B|-----------------------------------------------------------------|
G|9-9-9-9-9-9-9-9-9-9-9-9-9-9-9-9-9-9-9-9-9-9-9-9-9-9-9-9-9-9-9-9--| Repeat Whole
D|--------------------------------------------------------------12-| Part 2x
A|-----------------------------------------------------------------|
E|-----------------------------------------------------------------|

e|--------------------------------|
B|--------------------7-7-8-8-7-7-|
G|9-9-9-9-9-9-9-9-9-9-9-9-9-9-9-9-| 3x
D|--------------------------------|
A|--------------------------------|
E|--------------------------------|

e|--------------------------------|
B|--------------------------------|
G|9-9-9-9-9-9-9-9-7---------------|
D|--------------------------------|
A|--------------------------------|
E|--------------------------------|

Final Chorus
e|----------------------------------------------------------------|
B|----------------------------------------------------------------|
G|--------------------------------5-5-5-5-5-5-5-5-7-7-7-7-7-7-7-7-|
D|5-5-5-5-5-5-5-5-5-5-5-5-5-5-5-5-5-5-5-5-5-5-5-5-7-7-7-7-7-7-7-7-| 2x
A|5-5-5-5-5-5-5-5-5-5-5-5-5-5-5-5-3-3-3-3-3-3-3-3-5-5-5-5-5-5-5-5-|
E|3-3-3-3-3-3-3-3-3-3-3-3-3-3-3-3---------------------------------|

e|----------------------------------------------------------------|
B|----------------------------------------------------------------|
G|9-9-9-9-9-9-9-9-9-9-9-9-9-9-9-9-5-5-5-5-5-5-5-5-7-7-7-7-7-7-7-7-|
D|9-9-9-9-9-9-9-9-9-9-9-9-9-9-9-9-5-5-5-5-5-5-5-5-7-7-7-7-7-7-7-7-|
A|7-7-7-7-7-7-7-7-7-7-7-7-7-7-7-7-3-3-3-3-3-3-3-3-5-5-5-5-5-5-5-5-|
E|----------------------------------------------------------------|

e|----------------------------------------------------------------|
B|----------------------------------------------------------------|
G|9-9-9-9-9-9-9-9-5-5-5-5-5-5-5-5-7-7-7-7-7-7-7-7-7-7-7-7-7-7-7-7-|
D|9-9-9-9-9-9-9-9-5-5-5-5-5-5-5-5-7-7-7-7-7-7-7-7-7-7-7-7-7-7-7-7-| 2x
A|7-7-7-7-7-7-7-7-3-3-3-3-3-3-3-3-5-5-5-5-5-5-5-5-5-5-5-5-5-5-5-5-|
E|----------------------------------------------------------------|

Outro
e|----------------------------------------------7---------------|
B|----------------------------------------------8---------------|
G|9--------5--------7----------4----------------9---------------|
D|9--------5--------7----------4----------------9---------------|
A|7--------3--------5----------2----------------7---------------|
E|----------------------------------------------0---------------|


That's about it. Please rate and comment!

            
            
Suggest correction
Creating personal tab
Creating personal tab
You can edit any tab online and save it as your Personal.

You can edit, replace or remove any tab part or add personal notes – all changes will be seen only by you.

Personal tabs can be accessed anytime from any device, even offline.
Learn more »
Give kudos to tab author, rate the tab!
1 2 3 4 5
comments
print report bad tab
guest
You may want to rate the tab now too:
select rating
Wanna post a correction for this tab? Suggest correction