Oops, an error
Loading. Please wait.

The Torture Doctor tab

3,207 views 9 this week
no commentswrite comment
1 2 3 4 5
x 6
add to favorites
×
Save as Personal and add changes to this tab that will be seen only by you. Learn more ›
×
You can save this tab as Personal to edit and correct it or add notes. All changes will be seen only by you. Learn more »
launch autoscroll
font size
0
reset
how to read this tab
guitar tuner
edit
Autoscroll
slow
fast
+/-
esc
set tempo
stop
Artist: Alkaline Trio
Song: The Torture Doctor
Album: My Shame Is True

Intro (Guitar 1)
e|--------------------------------------------------------------------------------------|
B|--------------------------------------------------------------------------------------|
G|9-9-9-10-10-10-12-12-12-12-12-12-12-12-12-12-9-9-9-10-10-10-12-12-10-10-10-10-9-9-9-9-|
D|10101010-10-10-10-10-10-10-10-10-10-10-10-10-10101010-10-10-10-10-10-10-10-10-10101010|
A|--------------------------------------------------------------------------------------|
E|--------------------------------------------------------------------------------------|

e|-----------------------------------------------------------------------------------------|
B|-----------------------------------------------------------------------------------------|
G|9-9-9-10-10-10-12-12-10-10-10-10-9-9-9-9-10-10-10-10-10-10-10-10-10-10-10-10-12-12-12-12-|
D|10101010-10-10-10-10-10-10-10-10-1010101010-10-10-10-10-10-10-10-10-10-10-10-10-10-10-10-|
A|-----------------------------------------------------------------------------------------|
E|-----------------------------------------------------------------------------------------|

Intro (Guitar 2)
e|----------------------------------------------------------------|
B|----------------------------------------------------------------|
G|----------------------------------------------------------------|
D|101010101010101010101010101010107-7-7-7-7-7-7-7-7-7-7-7-7-7-7-7-|
A|101010101010101010101010101010107-7-7-7-7-7-7-7-7-7-7-7-7-7-7-7-|
E|8-8-8-8-8-8-8-8-8-8-8-8-8-8-8-8-5-5-5-5-5-5-5-5-5-5-5-5-5-5-5-5-|

e|----------------------------------------------------------------|
B|----------------------------------------------------------------|
G|----------------------------------------------------------------|
D|5-5-5-5-5-5-5-5-5-5-5-5-5-5-5-5-3-3-3-3-3-3-3-3-3-3-3-3-3-3-3-3-|
A|5-5-5-5-5-5-5-5-5-5-5-5-5-5-5-5-3-3-3-3-3-3-3-3-3-3-3-3-3-3-3-3-|
E|3-3-3-3-3-3-3-3-3-3-3-3-3-3-3-3-1-1-1-1-1-1-1-1-1-1-1-1-1-1-1-1-|

Verse
e|----------------------------------------------------------------|
B|----------------------------------------------------------------|
G|----------------------------------------------------------------|
D|101010101010101010101010101010107-7-7-7-7-7-7-7-7-7-7-7-7-7-7-7-|
A|101010101010101010101010101010107-7-7-7-7-7-7-7-7-7-7-7-7-7-7-7-|
E|8-8-8-8-8-8-8-8-8-8-8-8-8-8-8-8-5-5-5-5-5-5-5-5-5-5-5-5-5-5-5-5-|
  . . . . . . . . . . . . . . . . . . . . . . . . . . . . . . . .

e|----------------------------------------------------------------|
B|----------------------------------------------------------------|
G|----------------------------------------------------------------|
D|5-5-5-5-5-5-5-5-5-5-5-5-5-5-5-5-3-3-3-3-3-3-3-3-3-3-3-3-3-3-3-3-|
A|5-5-5-5-5-5-5-5-5-5-5-5-5-5-5-5-3-3-3-3-3-3-3-3-3-3-3-3-3-3-3-3-|
E|3-3-3-3-3-3-3-3-3-3-3-3-3-3-3-3-1-1-1-1-1-1-1-1-1-1-1-1-1-1-1-1-|
  . . . . . . . . . . . . . . . . . . . . . . . . . . . .

e|----------------------------------------------------------------|
B|----------------------------------------------------------------|
G|----------------------------------------------------------------|
D|101010101010101010101010101010107-7-7-7-7-7-7-7-7-7-7-7-7-7-7-7-|
A|101010101010101010101010101010107-7-7-7-7-7-7-7-7-7-7-7-7-7-7-7-|
E|8-8-8-8-8-8-8-8-8-8-8-8-8-8-8-8-5-5-5-5-5-5-5-5-5-5-5-5-5-5-5-5-|
  . .   . . .   . . .   . . .     . .   . . .   . . .   . . 

e|---------------------------------------------------------------|
B|---------------------------------------------------------------|
G|---------------------------------------------------------------|
D|5-5-5-5-5-5-5-5-5-5-5-5-5-5-5-3-3-3-3-3-3-3-3-3-3-3-3-5-5-5-5--|
A|5-5-5-5-5-5-5-5-5-5-5-5-5-5-5-3-3-3-3-3-3-3-3-3-3-3-3-5-5-5-5--|
E|3-3-3-3-3-3-3-3-3-3-3-3-3-3-3-1-1-1-1-1-1-1-1-1-1-1-1-3-3-3-3--|
  . .   . . .   . . .   . .       . . . . . . . 

Pre-Chorus
e|----------------------------------------------------------------|
B|----------------------------------------------------------------|
G|----------------------------------------------------------------|
D|2-2-2-2-2-2-2-2-3-3-3-3-3-3-3-3-10101010101010109-9-9-9-9-9-9-9-|
A|2-2-2-2-2-2-2-2-3-3-3-3-3-3-3-3-10101010101010101010101010101010|
E|0-0-0-0-0-0-0-0-1-1-1-1-1-1-1-1-8-8-8-8-8-8-8-8-7-7-7-7-7-7-7-7-|

e|----------------------------------------------------------------|
B|----------------------------------------------------------------|
G|----------------------------------------------------------------|
D|7-7-7-7-7-7-7-7-7-7-7-7-7-7-7-7-3-3-3-3-3-3-3-3-5-5-5-5-5-5-5-5-|
A|7-7-7-7-7-7-7-7-7-7-7-7-7-7-7-7-3-3-3-3-3-3-3-3-5-5-5-5-5-5-5-5-|
E|5-5-5-5-5-5-5-5-5-5-5-5-5-5-5-5-1-1-1-1-1-1-1-1-3-3-3-3-3-3-3-3-|

Chorus
e|---------------------------------------------------|
B|---------------------------------------------------|
G|---------------------------------------------------|
D|7-7-7-7-7-------10101010----5-5-5-5-------3-3-3-3--| 2x
A|7-7-7-7-7-------10101010----5-5-5-5-------3-3-3-3--|
E|5-5-5-5-5-------8-8-8-8-----3-3-3-3-------1-1-1-1--|

e|------------------------------------------------------|
B|------------------------------------------------------|
G|------------------------------------------------------|
D|7-7-7-7-7-------10101010----5-5-5-5-----3-3-3-3-3-3-3-|
A|7-7-7-7-7-------10101010----5-5-5-5-----3-3-3-3-3-3-3-|
E|5-5-5-5-5-------8-8-8-8-----3-3-3-3-----1-1-1-1-1-1-1-|

e|----------------------------------------------------------------|
B|----------------------------------------------------------------|
G|----------------------------------------------------------------|
D|7-7-7-7-7-7-7-7-10101010101010105-5-5-5-5-5-5-5-3-3-3-3-3-3-3-3-|
A|7-7-7-7-7-7-7-7-10101010101010105-5-5-5-5-5-5-5-3-3-3-3-3-3-3-3-|
E|5-5-5-5-5-5-5-5-8-8-8-8-8-8-8-8-3-3-3-3-3-3-3-3-1-1-1-1-1-1-1-1-|

Repeat Intro

Verse 2
e|----------------------------------------------------------------|
B|----------------------------------------------------------------|
G|----------------------------------------------------------------|
D|101010101010101010101010101010107-7-7-7-7-7-7-7-7-7-7-7-7-7-7-7-|
A|101010101010101010101010101010107-7-7-7-7-7-7-7-7-7-7-7-7-7-7-7-|
E|8-8-8-8-8-8-8-8-8-8-8-8-8-8-8-8-5-5-5-5-5-5-5-5-5-5-5-5-5-5-5-5-|
  . . . . . . . . . . . . . . . . . . . . . . . . . . . . . . . .

e|----------------------------------------------------------------|
B|----------------------------------------------------------------|
G|----------------------------------------------------------------|
D|5-5-5-5-5-5-5-5-5-5-5-5-5-5-5-5-3-3-3-3-3-3-3-3-3-3-3-3-3-3-3-3-|
A|5-5-5-5-5-5-5-5-5-5-5-5-5-5-5-5-3-3-3-3-3-3-3-3-3-3-3-3-3-3-3-3-|
E|3-3-3-3-3-3-3-3-3-3-3-3-3-3-3-3-1-1-1-1-1-1-1-1-1-1-1-1-1-1-1-1-|
  . . . . . . . . . . . . . . . . . . . . . . . . . . . .

e|----------------------------------------------------------------|
B|----------------------------------------------------------------|
G|----------------------------------------------------------------|
D|101010101010101010101010101010107-7-7-7-7-7-7-7-7-7-7-7-7-7-7-7-|
A|101010101010101010101010101010107-7-7-7-7-7-7-7-7-7-7-7-7-7-7-7-|
E|8-8-8-8-8-8-8-8-8-8-8-8-8-8-8-8-5-5-5-5-5-5-5-5-5-5-5-5-5-5-5-5-|
  . .   . . .   . . .   . . .   . . .   . . .   . . .   . . .

e|----------------------------------------------------------------|
B|----------------------------------------------------------------|
G|----------------------------------------------------------------|
D|5-5-5-5-5-5-5-5-5-5-5-5-5-5-5-3-3-3-3-3-3-3-3-3-3-3-3-3-3-3-3-3-|
A|5-5-5-5-5-5-5-5-5-5-5-5-5-5-5-3-3-3-3-3-3-3-3-3-3-3-3-3-3-3-3-3-|
E|3-3-3-3-3-3-3-3-3-3-3-3-3-3-3-1-1-1-1-1-1-1-1-1-1-1-1-1-1-1-1-1-|
  . .   . . .   . . .   . . .     . .   . . .   . . .   .

Repeat Pre-Chorus

Chorus 2
e|---------------------------------------------------|
B|---------------------------------------------------|
G|---------------------------------------------------|
D|7-7-7-7-7-------10101010----5-5-5-5-------3-3-3-3--| 3x
A|7-7-7-7-7-------10101010----5-5-5-5-------3-3-3-3--|
E|5-5-5-5-5-------8-8-8-8-----3-3-3-3-------1-1-1-1--|

e|----------------------------------------------------------------|
B|----------------------------------------------------------------|
G|----------------------------------------------------------------|
D|7-7-7-7-7-7-7-7-10101010101010105-5-5-5-5-5-5-5-5-5-5-5-5-5-5-5-|
A|7-7-7-7-7-7-7-7-10101010101010105-5-5-5-5-5-5-5-5-5-5-5-5-5-5-5-|
E|5-5-5-5-5-5-5-5-8-8-8-8-8-8-8-8-3-3-3-3-3-3-3-3-3-3-3-3-3-3-3-3-|

Bridge
e|--------------------------------------------------------------|
B|--------------------------------------------------------------|
G|--------------------------------------------------------------|
D|3-3-3-3-3-3-3-3-10101010101010105-5-5-5-5-5-5-5-5-5-5-5-7--2--|
A|3-3-3-3-3-3-3-3-10101010101010105-5-5-5-5-5-5-5-5-5-5-5-7--2--|
E|1-1-1-1-1-1-1-1-8-8-8-8-8-8-8-8-3-3-3-3-3-3-3-3-3-3-3-3-5--0--|

e|----------------------------------------------------------------|
B|----------------------------------------------------------------|
G|----------------------------------------------------------------|
D|3-3-3-3-3-3-3-3-10101010101010105-5-5-5-5-5-5-5-5-5-5-5-5-5-5-5-| 
A|3-3-3-3-3-3-3-3-10101010101010105-5-5-5-5-5-5-5-5-5-5-5-5-5-5-5-| 
E|1-1-1-1-1-1-1-1-8-8-8-8-8-8-8-8-3-3-3-3-3-3-3-3-3-3-3-3-3-3-3-3-|

e|--------------------------------------------------------------|
B|--------------------------------------------------------------|
G|--------------------------------------------------------------|
D|3-3-3-3-3-3-3-3-10101010101010105-5-5-5-5-5-5-5-5-5-5-5-7--2--|
A|3-3-3-3-3-3-3-3-10101010101010105-5-5-5-5-5-5-5-5-5-5-5-7--2--|
E|1-1-1-1-1-1-1-1-8-8-8-8-8-8-8-8-3-3-3-3-3-3-3-3-3-3-3-3-5--0--|

e|----------------------------------------------------------------|
B|----------------------------------------------------------------|
G|----------------------------------------------------------------|
D|3-3-3-3-3-3-3-3-3-3-3-3-3-3-3-3-5-5-5-5-5-5-5-5-5-5-5-5-5-5-5-5-| 
A|3-3-3-3-3-3-3-3-3-3-3-3-3-3-3-3-5-5-5-5-5-5-5-5-5-5-5-5-5-5-5-5-| 
E|1-1-1-1-1-1-1-1-1-1-1-1-1-1-1-1-3-3-3-3-3-3-3-3-3-3-3-3-3-3-3-3-|

e|----------------------------------------------------------------|
B|----------------------------------------------------------------|
G|----------------------------------------------------------------|
D|7-7-7-7-7-7-7-7-10101010101010105-5-5-5-5-5-5-5-5-5-5-5-5-5-5-5-| 2x
A|7-7-7-7-7-7-7-7-10101010101010105-5-5-5-5-5-5-5-5-5-5-5-5-5-5-5-|
E|5-5-5-5-5-5-5-5-8-8-8-8-8-8-8-8-3-3-3-3-3-3-3-3-3-3-3-3-3-3-3-3-|

Chorus
e|---------------------------------------------------|
B|---------------------------------------------------|
G|---------------------------------------------------|
D|7-7-7-7-7-------10101010----5-5-5-5-------3-3-3-3--| 2x
A|7-7-7-7-7-------10101010----5-5-5-5-------3-3-3-3--|
E|5-5-5-5-5-------8-8-8-8-----3-3-3-3-------1-1-1-1--|

e|------------------------------------------------------|
B|------------------------------------------------------|
G|------------------------------------------------------|
D|7-7-7-7-7-------10101010----5-5-5-5-----3-3-3-3-3-3-3-|
A|7-7-7-7-7-------10101010----5-5-5-5-----3-3-3-3-3-3-3-|
E|5-5-5-5-5-------8-8-8-8-----3-3-3-3-----1-1-1-1-1-1-1-|

e|----------------------------------------------------------------|
B|----------------------------------------------------------------|
G|----------------------------------------------------------------|
D|7-7-7-7-7-7-7-7-10101010101010105-5-5-5-5-5-5-5-5-5-5-5-5-5-5-5-|
A|7-7-7-7-7-7-7-7-10101010101010105-5-5-5-5-5-5-5-5-5-5-5-5-5-5-5-|
E|5-5-5-5-5-5-5-5-8-8-8-8-8-8-8-8-3-3-3-3-3-3-3-3-3-3-3-3-3-3-3-3-|

Outro
e|----------------------------------------------------------------|
B|----------------------------------------------------------------|
G|----------------------------------------------------------------|
D|101010101010101010101010101010107-7-7-7-7-7-7-7-5-5-5-5-5-5-5-5-| 4x
A|101010101010101010101010101010107-7-7-7-7-7-7-7-5-5-5-5-5-5-5-5-|
E|8-8-8-8-8-8-8-8-8-8-8-8-8-8-8-8-5-5-5-5-5-5-5-5-3-3-3-3-3-3-3-3-|

End On:
e|---------------------------------------|
B|---------------------------------------|
G|---------------------------------------|
D|10-------------------------------------|
A|10-------------------------------------|
E|8--------------------------------------|

That's it. Please rate and comment!

            
            
Suggest correction
Creating personal tab
Creating personal tab
You can edit any tab online and save it as your Personal.

You can edit, replace or remove any tab part or add personal notes – all changes will be seen only by you.

Personal tabs can be accessed anytime from any device, even offline.
Learn more »
comments
print report bad tab
guest
You may want to rate the tab now too:
select rating
Wanna post a correction for this tab? Suggest correction