Oops, an error
Loading. Please wait.

This Addiction Bass Tab

version 1
version 1

Whole song

Interactive

6,744 views 6 this week
no commentswrite comment
1 2 3 4 5
excellent!
x 5
add to favorites
launch autoscroll
font size
0
reset
guitar tuner
Autoscroll
slow
fast
+/-
esc
set tempo
stop
Help us to improve Ultimate-Guitar.com Take our survey!
×
Contributor
Difficulty
novice
Song: This Addiction
Band:Alkaline Trio
Album: This Addiction (2010)
Bassist: Dan Andriano

214BPM

INTRO

G|-----------------|-----------------|-----------------|-----------------|
D|-----------------|-----------------|-----------------|-----------------|
A|-7-7-7-7-7-7-7-7-|-7-7-7-7-7-7-7-7-|-4-4-4-4-4-4-4-4-|-6-6-6-6-7-7-7-7-|
E|-----------------|-----------------|-----------------|-----------------|
   1 + 2 + 3 + 4 +   1 + 2 + 3 + 4 +   1 + 2 + 3 + 4 +   1 + 2 + 3 + 4 +

G|-----------------|-----------------|-----------------|-----------------|
D|-----------------|-4-4-4-4---------|-----------------|-7-7-7-7---------|
A|-2-2-2-2-2-2-2-2-|-2-2-2-2-2-2-2-2-|-0-0-0-0-0-0-0-0-|-0-0-0-0-0-0-0-0-|
E|-----------------|-----------------|-----------------|-----------------|
   1 + 2 + 3 + 4 +   1 + 2 + 3 + 4 +   1 + 2 + 3 + 4 +   1 + 2 + 3 + 4 +

G|-----------------|-----------------|-----------------|-----------------|
D|-----------------|-6-6-6-6-7-7-6-6-|-----------------|-6-6-------------|
A|-7-7-7-7-9-9-9-9-|-----------------|-4-4-4-4-4-4-4-4-|-----4-4-7-7-6-6-|
E|-----------------|-----------------|-----------------|-----------------|
   1 + 2 + 3 + 4 +   1 + 2 + 3 + 4 +   1 + 2 + 3 + 4 +   1 + 2 + 3 + 4 +

G|-----------------|-----------------|-----------------|-----------------|
D|-----------------|-4-4---4---4-----|-----------------|-7-7-7-7---------|
A|-2-2-2-2-2-2-2-2-|-2-2-2-2-2-2-2-2-|-0-0-0-0-0-0-0-0-|-0-0-0-0-0-0-0-0-|
E|-----------------|-----------------|-----------------|-----------------|
   1 + 2 + 3 + 4 +   1 + 2 + 3 + 4 +   1 + 2 + 3 + 4 +   1 + 2 + 3 + 4 +

G|-----------------|-----------------|-----------------|-----------------|
D|-----------------|-----------------|-----------------|-----------------|
A|-7---7---7-7-7-7-|---7-7---7-7-7-7-|-----------------|-----------------|
E|-----------------|-----------------|-4---4---4-4-4-5-|---5-5---5-5-5-5-|
   1 + 2 + 3 + 4 +   1 + 2 + 3 + 4 +   1 + 2 + 3 + 4 +   1 + 2 + 3 + 4 +

G|-----------------|-----------------|-----------------|-----------------||
D|-----------------|-----------------|-6---6---6-6-6-7-|---7-7---7-7-7-7-||
A|-7---7---7-7-7-7-|---7-7---7-7-7-7-|-----------------|-----------------||
E|-----------------|-----------------|-----------------|-----------------||
   1 + 2 + 3 + 4 +   1 + 2 + 3 + 4 +   1 + 2 + 3 + 4 +   1 + 2 + 3 + 4 +

VERSE

G|-----------------|-----------------|-----------------|-----------------|
D|-----------------|-----------------|---------6-6-6---|-----------------|
A|-7---7---7-7-7-7-|---7-7---7-7-7-7-|-----------------|-----------------|
E|-----------------|-----------------|-4---4---------5-|---5-5-5-5-5-5-5-|
   1 + 2 + 3 + 4 +   1 + 2 + 3 + 4 +   1 + 2 + 3 + 4 +   1 + 2 + 3 + 4 +

G|-----------------|-----------------|-----------------|-----------------|
D|-----------------|-----------------|-6---6---6-6-6-7-|---7-7---7-7-7-7-|
A|-7---7---7-7-7-7-|---7-6-6-4-4-2-2-|-----------------|-----------------|
E|-----------------|-----------------|-----------------|-----------------|
   1 + 2 + 3 + 4 +   1 + 2 + 3 + 4 +   1 + 2 + 3 + 4 +   1 + 2 + 3 + 4 +

G|-----------------|-----------------|-----------------|-----------------|
D|-----------------|-----------------|-----------------|-----------------|
A|-7---7---7-7-7-7-|---7-7---7-7-7-7-|-----------------|-----------------|
E|-----------------|-----------------|-4---4---4-4-4-5-|---5-5---5-5-5-5-|
   1 + 2 + 3 + 4 +   1 + 2 + 3 + 4 +   1 + 2 + 3 + 4 +   1 + 2 + 3 + 4 +

G|-----------------|-----------------|-----------------|-----------------||
D|-----------------|-----------------|-*---------------|-----------------||
A|-7---7---7-7-7-7-|---7-7---7-7-7-7-|/1414141414141414|-7-7-7-7-6-6-6-6-||
E|-----------------|-----------------|-----------------|-----------------||
   1 + 2 + 3 + 4 +   1 + 2 + 3 + 4 +   1 + 2 + 3 + 4 +   1 + 2 + 3 + 4 +
					     (14's not 1's and 4's)

CHORUS

G|-----------------|-----------------|-----------------|-----------------|
D|-----------------|-----------------|-----------------|-----------------|
A|-4---4---4-4-4-4-|-0---0---0-0-0-0-|-----------------|-2-2-2-2-2-2-2-0-|
E|-----------------|-----------------|-0---0---0-0-0-0-|-----------------|
   1 + 2 + 3 + 4 +   1 + 2 + 3 + 4 +   1 + 2 + 3 + 4 +   1 + 2 + 3 + 4 +

G|-----------------|-----------------|-----------------|-----------------|
D|-----------------|-----------------|-----------------|-----------------|
A|-4---4---4-4-4-4-|-0---0---0-0-0-0-|-----------------|-2-2-2-2-2-2-0-2-|
E|-----------------|-----------------|-0---0---0-0-0-0-|-----------------|
   1 + 2 + 3 + 4 +   1 + 2 + 3 + 4 +   1 + 2 + 3 + 4 +   1 + 2 + 3 + 4 +

G|-----------------|-----------------|-----------------|-----------------|
D|-----------------|-----------------|-----------------|-----------------|
A|-4---4---4-4-4-4-|-0---0---0-0-0-0-|-----------------|-2-2-2-2---2-2-2-|
E|-----------------|-----------------|-0---0---0-0-0-0-|-----------------|
   1 + 2 + 3 + 4 +   1 + 2 + 3 + 4 +   1 + 2 + 3 + 4 +   1 + 2 + 3 + 4 +

G|-----------------|-----------------|-----------------|-----------------||
D|-----------------|-----------------|-----------------|-----------------||
A|-0---0-0-0-0-0-0-|---0-0-0-0-0-0-0-|-2-2-2-2---2-2-2-|-0-0-0-0-0-0-0-0-||
E|-----------------|-----------------|-----------------|-----------------||
   1 + 2 + 3 + 4 +   1 + 2 + 3 + 4 +   1 + 2 + 3 + 4 +   1 + 2 + 3 + 4 +

INTERLUDE

G|-----------------|-----------------|-----------------|-----------------|
D|-----------------|-----------------|-----------------|-----------------|
A|-7---7---7-7-7-7-|---7-7---7-7-7-7-|-----------------|-----------------|
E|-----------------|-----------------|-4---4---4-4-4-5-|---5-5---5-5-5-5-|
   1 + 2 + 3 + 4 +   1 + 2 + 3 + 4 +   1 + 2 + 3 + 4 +   1 + 2 + 3 + 4 +

G|-----------------|-----------------|-----------------|-----------------||
D|-----------------|-----------------|-6---6---6-6-6-7-|---7-7---7-7-7-7-||
A|-7---7---7-7-7-7-|---7-7---7-7-7-7-|-----------------|-----------------||
E|-0---------------|-----------------|-----------------|-----------------||
   1 + 2 + 3 + 4 +   1 + 2 + 3 + 4 +   1 + 2 + 3 + 4 +   1 + 2 + 3 + 4 +

VERSE

G|-----------------|-----------------|-----------------|-----------------|
D|-----------------|-----------------|-----------------|-----------------|
A|-7---7---7-7-7-7-|---7-7---7-7-7-7-|-----------------|-----------------|
E|-----------------|-----------------|-4---4---4-4-4-5-|---5-5-5-5-5-5-5-|
   1 + 2 + 3 + 4 +   1 + 2 + 3 + 4 +   1 + 2 + 3 + 4 +   1 + 2 + 3 + 4 +

G|-----------------|-----------------|-----------------|-----------------|
D|-----------------|-----------------|-6---6---6-6-6-7-|---7-7---7-7-7-7-|
A|-7---7---7-7-7-7-|---7-6-6-7-7-9-9-|-----------------|-----------------|
E|-----------------|-----------------|-----------------|-----------------|
   1 + 2 + 3 + 4 +   1 + 2 + 3 + 4 +   1 + 2 + 3 + 4 +   1 + 2 + 3 + 4 +

G|-----------------|-----------------|-----------------|-----------------|
D|-----------------|-----------------|-----------------|-----------------|
A|-7---7---7-7-7-7-|---7-7---7-7-7-7-|-----------------|-----------------|
E|-----------------|-----------------|-4---4---4-4-4-5-|---5-5-5-5-5-5-5-|
   1 + 2 + 3 + 4 +   1 + 2 + 3 + 4 +   1 + 2 + 3 + 4 +   1 + 2 + 3 + 4 +

G|-----------------|-----------------|-----------------|-----------------||
D|-----------------|-----------------|-*---------------|-----------------||
A|-----7---7---7-7-|---7-----7-7-7-7-|/1414141414141414|-7-7-7-7-6-6-6-6-||
E|-0---------7-----|-----7-----------|-----------------|-----------------||
   1 + 2 + 3 + 4 +   1 + 2 + 3 + 4 +   1 + 2 + 3 + 4 +   1 + 2 + 3 + 4 +
					     (14's not 1's and 4's)

CHORUS

G|-----------------|-----------------|-----------------|-----------------|
D|-----------------|-----------------|-----------------|-----------------|
A|-4---4---4-4-4-4-|-0---0---0-0-0-0-|-----------------|-2-2-2-2-2-2-0-2-|
E|-----------------|-----------------|-0---0---0-0-0-0-|-----------------|
   1 + 2 + 3 + 4 +   1 + 2 + 3 + 4 +   1 + 2 + 3 + 4 +   1 + 2 + 3 + 4 +

G|-----------------|-----------------|-----------------|-----------------|
D|-----------------|-----------------|-----------------|-----------------|
A|-4---4---4-4-4-4-|-0---0---0-0-0-0-|-----------------|-2-2-2-2-2-2-0-2-|
E|-----------------|-----------------|-0---0---0-0-0-0-|-----------------|
   1 + 2 + 3 + 4 +   1 + 2 + 3 + 4 +   1 + 2 + 3 + 4 +   1 + 2 + 3 + 4 +

G|-----------------|-----------------|-----------------|-----------------|
D|-----------------|-----------------|-----------------|-----------------|
A|-4---4---4-4-4-4-|-0---0---0-0-0-0-|-7---7---7-7-7-7-|-2-2-2-2---2-2-2-|
E|-----------------|-----------------|-----------------|-----------------|
   1 + 2 + 3 + 4 +   1 + 2 + 3 + 4 +   1 + 2 + 3 + 4 +   1 + 2 + 3 + 4 +

G|-----------------|-----------------|-----------------|-----------------||
D|-----------------|-----------------|-----------------|-----------------||
A|-0---0-0-0-0-0-0-|---0-0-0-0-0-0-0-|-2-2-2-2---2-2-2-|-0-0-0-0-0-0-0-0-||
E|-----------------|-----------------|-----------------|-----------------||
   1 + 2 + 3 + 4 +   1 + 2 + 3 + 4 +   1 + 2 + 3 + 4 +   1 + 2 + 3 + 4 +

INTERLUDE

G|-----------------|-----------------|-----------------|-----------------|
D|-----------------|-----------------|-----------------|-----------------|
A|-7-7-7-7-7-7-7-7-|-7-7-7-7-7-7-7-7-|-4-4-4-4-4-4-4-4-|-6-6-6-6-7-7-7-7-|
E|-----------------|-----------------|-----------------|-----------------|
   1 + 2 + 3 + 4 +   1 + 2 + 3 + 4 +   1 + 2 + 3 + 4 +   1 + 2 + 3 + 4 +

G|-----------------|-----------------|-----------------|-----------------|
D|-----------------|-4-4-----4-4-----|-----------------|-7-7-7-7---------|
A|-2-2-2-2-2-2-2-2-|-2-2-2-2-2-2-2-2-|-0-0-0-0-0-0-0-0-|-0-0-0-0-0-0-0-0-|
E|-----------------|-----------------|-----------------|-----------------|
   1 + 2 + 3 + 4 +   1 + 2 + 3 + 4 +   1 + 2 + 3 + 4 +   1 + 2 + 3 + 4 +

G|-----------------|-----------------|-----------------|-----------------|
D|-----------------|-6-6-6-6-7-7-6-6-|-----------------|-6-6-------------|
A|-7-7-7-7-9-9-9-9-|-----------------|-4-4-4-4-4-4-4-4-|-----4-4-7-7-6-6-|
E|-----------------|-----------------|-----------------|-----------------|
   1 + 2 + 3 + 4 +   1 + 2 + 3 + 4 +   1 + 2 + 3 + 4 +   1 + 2 + 3 + 4 +

G|-----------------|-----------------|-----------------|-----------------|
D|-----------------|-4-4-4-4---------|-----------------|-7-7-7-7---------|
A|-2-2-2-2-2-2-2-2-|-2-2-2-2-2-2-2-2-|-0-0-0-0-0-0-0-0-|-0-0-0-0-0-0-0-0-|
E|-----------------|-----------------|-----------------|-----------------|
   1 + 2 + 3 + 4 +   1 + 2 + 3 + 4 +   1 + 2 + 3 + 4 +   1 + 2 + 3 + 4 +

CHORUS

G|-----------------|-----------------|-----------------|-----------------|
D|-----------------|-----------------|-----------------|-----------------|
A|-4---4---4-4-4-4-|-0---0---0-0-0-0-|-----------------|-2-2-2-2-2-2-0-2-|
E|-----------------|-----------------|-0---0---0-0-0-0-|-----------------|
   1 + 2 + 3 + 4 +   1 + 2 + 3 + 4 +   1 + 2 + 3 + 4 +   1 + 2 + 3 + 4 +

G|-----------------|-----------------|-----------------|-----------------|
D|-----------------|-----------------|-----------------|-----------------|
A|-4---4---4-4-4-4-|-0---0---0-0-0-0-|-----------------|-2---2-2---2-0-2-|
E|-----------------|-----------------|-0---0---0-0-0-0-|-----------------|
   1 + 2 + 3 + 4 +   1 + 2 + 3 + 4 +   1 + 2 + 3 + 4 +   1 + 2 + 3 + 4 +

G|-----------------|-----------------|-----------------|-----------------|
D|-----------------|-----------------|-----------------|-----------------|
A|-4---4---4-4-4-4-|-0---0---0-0-0-0-|-7---7---7-7-7-7-|-2-2-2-2---2-2-2-|
E|-----------------|-----------------|-----------------|-----------------|
   1 + 2 + 3 + 4 +   1 + 2 + 3 + 4 +   1 + 2 + 3 + 4 +   1 + 2 + 3 + 4 +

G|-----------------|-----------------|-----------------|-----------------||
D|-----------------|-----------------|-----------------|-----------------||
A|-0---0-0-0-0-0-0-|-0-0-0-0-0-0-0-0-|-2-2-2-2-2-2-2-2-|-0-0-0-0-0-0-0-0-||
E|-----------------|-----------------|-----------------|-----------------||
   1 + 2 + 3 + 4 +   1 + 2 + 3 + 4 +   1 + 2 + 3 + 4 +   1 + 2 + 3 + 4 +

OUTRO


G|-----------------|-----------------|-----------------|-----------------|
D|-----------------|-----------------|-----------------|-----------------|
A|-7---7---7-7-7-7-|---7-7---7-7-7-7-|-----------------|-----------------|
E|-----------------|-----------------|-4---4---4-4-4-5-|---5-5---5-5-5-5-|
   1 + 2 + 3 + 4 +   1 + 2 + 3 + 4 +   1 + 2 + 3 + 4 +   1 + 2 + 3 + 4 +

G|-----------------|-----------------|-----------------|-----------------||
D|-----------------|-----------------|-6---6---6-6-6-7-|--(7)\\\---------||
A|-7---7---7-7-7-7-|---7-7---7-7-7-7-|-----------------|-----------------||
E|-----------------|-----------------|-----------------|-----------------||
   1 + 2 + 3 + 4 +   1 + 2 + 3 + 4 +   1 + 2 + 3 + 4 +   1 + 2 + 3 + 4 +
Suggest correction new What's this?
You can suggest a correction to this tab. Community and Mods will review your correction and vote to approve or reject it.
comments
print report bad tab
guest
You may want to rate the tab now too:
select rating
Please do not post tabs as comments. Select "correction" instead!