Oops, an error
Loading. Please wait.

This Addiction Tab

version 2
version 2

Whole song

Interactive

9,722 views 12 this week
1 commentread comment
1 2 3 4 5
accurate
x 4
add to favorites
launch autoscroll
font size
0
reset
how to read this tab
guitar tuner
Autoscroll
slow
fast
+/-
esc
set tempo
stop
Help us to improve Ultimate-Guitar.com Take our survey!
×
Author
Difficulty
novice
New Song from Alkaline Trio's New Album 'This Addiction'
Hope you Like, really fun to play :)

Intro:

e|---------------------------------------------------------------------|
B|---------------------------------------------------------------------|
G|99999999999999999999/8888/999999/1111/9999999/8/9999999/8/9999999/8/-|
D|---------------------------------------------------------------------|
A|77777777777777777777/6666/777777/9-9-/7777777/6/7777777/6/7777777/6/-|
E|---------------------------------------------------------------------|

e|--------------------------------------------------------|
B|--------------------------------------------------------|
G|9999999/1111111111/141414-------------------------------|
D|-------------------------Pick Slide Up------------------|
A|7777777/9-9-9-9-9-/121212-------------------------------|
E|--------------------------------------------------------|

Verse:

e|--------------------------------------------------------|
B|--------------------------------------------------------|
G|--------------------------------------------------------|
D|22222222-6666/77777-22222222-6666/7777------------------|
A|22222222-6666/77777-22222222-6666/7777------------------|
E|00000000-4444/55555-00000000-4444/5555------------------|

"you hit me just like heroine...."
e|--------------------------------------------------------|
B|--------------------------------------------------------|
G|--------------------------------------------------------|
D|2--------6----7----2---------6----7---------------------|
A|2--------6----7----2---------6----7---------------------|
E|0--------4----5----0---------4----5---------------------|


e|--------------------------------------------------------|
B|--------------------------------------------------------|
G|--------------------------------------------------------|
D|2--------6----7----2---------6----7---------------------|
A|2--------6----7----2---------6----7---------------------|
E|0--------4----5----0---------4----5---------------------|

Chorus:
"This Addiction, cant seem to live without you..."

e|--------------------------------------------------------|
B|--------------------------------------------------------|
G|6666----------------6666-----------4444-----------------|
D|6666-7777-2222-9999-6666-7777-2222-4444-----------------|
A|4444-7777-2222-9999-4444-7777-2222-2222-----------------|
E|-----5555-0000-7777------5555-0000----------------------|

e|--------------------------------------------------------|
B|--------------------------------------------------------|
G|6666----------------22222222-4444-2222------------------|
D|6666-7777-2222-9999-22222222-4444-2222------------------|
A|4444-7777-2222-9999-00000000-2222-0000------------------|
E|-----5555-0000-7777-------------------------------------|

Verse:

e|--------------------------------------------------------|
B|--------------------------------------------------------|
G|--------------------------------------------------------|
D|22222222-6666/77777-22222222-6666/7777------------------|
A|22222222-6666/77777-22222222-6666/7777------------------|
E|00000000-4444/55555-00000000-4444/5555------------------|

"Well those others were like methodone..."
e|--------------------------------------------------------|
B|--------------------------------------------------------|
G|--------------------------------------------------------|
D|2--------6----7----2---------6----7---------------------|
A|2--------6----7----2---------6----7---------------------|
E|0--------4----5----0---------4----5---------------------|


e|--------------------------------------------------------|
B|--------------------------------------------------------|
G|--------------------------------------------------------|
D|2--------6----7----2---------6----7---------------------|
A|2--------6----7----2---------6----7---------------------|
E|0--------4----5----0---------4----5---------------------|

Chorus:
"This Addiction, cant seem to live without you..."

e|--------------------------------------------------------|
B|--------------------------------------------------------|
G|6666----------------6666-----------4444-----------------|
D|6666-7777-2222-9999-6666-7777-2222-4444-----------------|
A|4444-7777-2222-9999-4444-7777-2222-2222-----------------|
E|-----5555-0000-7777------5555-0000----------------------|

e|--------------------------------------------------------|
B|--------------------------------------------------------|
G|6666----------------22222222-4444-2222------------------|
D|6666-7777-2222-9999-22222222-4444-2222------------------|
A|4444-7777-2222-9999-00000000-2222-0000------------------|
E|-----5555-0000-7777-------------------------------------|

Break:

e|---------------------------------------------------------------------|
B|---------------------------------------------------------------------|
G|99999999999999999999/8888/999999/1111/9999999/8/9999999/8/9999999/8/-|
D|---------------------------------------------------------------------|
A|77777777777777777777/6666/777777/9-9-/7777777/6/7777777/6/7777777/6/-|
E|---------------------------------------------------------------------|

e|--------------------------------------------------------|
B|--------------------------------------------------------|
G|9999999/1111111111/141414-------------------------------|
D|-------------------------Pick Slide Up------------------|
A|7777777/9-9-9-9-9-/121212-------------------------------|
E|--------------------------------------------------------|

Chorus:
"This Addiction, This Addiction..."

e|--------------------------------------------------------|
B|--------------------------------------------------------|
G|6666----------------6666-----------4444-----------------|
D|6666-7777-2222-9999-6666-7777-2222-4444-----------------|
A|4444-7777-2222-9999-4444-7777-2222-2222-----------------|
E|-----5555-0000-7777------5555-0000----------------------|

e|--------------------------------------------------------|
B|--------------------------------------------------------|
G|6666----------------22222222-4444-2222------------------|
D|6666-7777-2222-9999-22222222-4444-2222------------------|
A|4444-7777-2222-9999-00000000-2222-0000------------------|
E|-----5555-0000-7777-------------------------------------|

Outro:

e|--------------------------------------------------------|
B|--------------------------------------------------------|
G|--------------------------------------------------------|
D|22222222-6666/77777-22222222-6666/7---------------------|
A|22222222-6666/77777-22222222-6666/7---------------------|
E|00000000-4444/55555-00000000-4444/5---------------------|
Suggest correction
comments
print report bad tab
1 comment total.
0 reply
TLi 10 wrote on January 22 2010, 08:48 pm

this tab is fecking ace!!!

guest
You may want to rate the tab now too:
select rating
Wanna post a correction for this tab? Suggest correction