Oops, an error
Loading. Please wait.

This Could Be Love Tab

version 5
version 5

Whole song

Interactive

6,411 views 15 this week
no commentswrite comment
1 2 3 4 5
x 5
add to favorites
launch autoscroll
font size
0
reset
how to read this tab
guitar tuner
Autoscroll
slow
fast
+/-
esc
set tempo
stop
Help us to improve Ultimate-Guitar.com Take our survey!
×
This Could Be Love

INTRO, GUITAR ONE
|--xx-44-55-44-xx-4-55-44--|
|:-22-22-22-22-22-2-22-22-:|
|--------------------------|
|--------------------------|
|:------------------------:|
|--------------------------|
|
|
|INTRO, GUITAR TWO
|--44444444444444444-55555555555555555--|
|:-55555555555555555-55555555555555555-:|
|--66666666666666666-66666666666666666--|
|--66666666666666666-77777777777777777--|
|:-44444444444444444-77777777777777777-:|
|--44444444444444444-55555555555555555--|


VERSE
|--PM------------------------------------|
|:-------------------PM-----------------:|
|--=================---------------------|
|--66666666666666666-==================--|
|:-44444444444444444-77777777-444444444-:|
|--44444444444444444-55555555-222222222--|


VERSE
|------------------------------------------------PM----------------|
|-----------------------------PM-----------------------------------|
|-==-6-=-==-6-=-==-6-=-==-6-=--------------------===============---|
|-66-6-6-66-6-6-66-6-6-66-6-6-==================-66666666666666666-|
|-44-4-4-44-4-4-44-4-4-44-4-4-777777777-44444444-44444444444444444-|
|-----------------------------555555555-22222222-44444444444444444-|


VERSE
--------------------|
--------------------|
-PM-----------------|
-===777777-44444444-|
-777777777-44444444-|
-555555555-22222222-|


GUITAR ONE
|--xx-44-55-44-xx-4-55-44--|
|:-22-22-22-22-22-2-22-22-:|
|--------------------------|
|--------------------------|
|:------------------------:|
|--------------------------|
|
|
|GUITAR TWO
|--44444444444444444-55555555555555555--|
|:-55555555555555555-55555555555555555-:|
|--66666666666666666-66666666666666666--|
|--66666666666666666-77777777777777777--|
|:-44444444444444444-77777777777777777-:|
|--44444444444444444-55555555555555555--|


VERSE
|----------------------------------------|
|:--------------------------------------:|
|--=================---------------------|
|--66666666666666666-==================--|
|:-44444444444444444-77777777-444444444-:|
|--44444444444444444-55555555-222222222--|


VERSE
|------------------------------------------------|
|------------------------------------------------|
|-==-6-=-==-6-=-==-6-=-==-6-=-PM-----------------|
|-66-6-6-66-6-6-66-6-6-66-6-6-==================-|
|-44-4-4-44-4-4-44-4-4-44-4-4-777777777-44444444-|
|-----------------------------555555555-22222222-|


VERSE
--------------------------------------------------|
--------------------------------------------------|
----------------------------PM--------------------|
--==-7/9-==-6/7-==-4/6-==---==========-==========-|
--44-----44-----44-----44-7-7777777777-4444444444-|
----------------------------5555555555-2222222222-|


CHORUS
---------------------------------------------------------------------|
---------------------------------------------------------------------|
99999999999999999------------------999999999999999-------------------|
99999999999999999-7777777-99999999-999999999999999-7777777-999999999-|
77777777777777777-7777777-99999999-777777777777777-7777777-999999999-|
00000000000000000-5555555-77777777-000000000000000-5555555-777777777-|


CHORUS
----------------------------------------------------------------------|
----------------------------------------------------------------------|
99999999999999999-----------------------------------------------------|
99999999999999999-7777777-99999999--7---7/9---9\7--7/9999999999999999-|
77777777777777777-7777777-99999999--7---7/9---9\7--7/9999999999999999-|
00000000000000000-5555555-77777777--5---5/7---7\5--5/7777777777777777-|


GUITAR ONE
|--xx-44-55-44-xx-4-55-44--|--4-------------------------|
|:-22-22-22-22-22-2-22-22-:|--2-------------------------|
|--------------------------|----------------------------|
|--------------------------|----------------------------|
|:------------------------:|----------------------------|
|--------------------------|----------------------------|
|
|
|GUITAR TWO
|--44444444444444444-55555555555555555--|--4---------------|
|:-55555555555555555-55555555555555555-:|--5---------------|
|--66666666666666666-66666666666666666--|--6---------------|
|--66666666666666666-77777777777777777--|--6---------------|
|:-44444444444444444-77777777777777777-:|--4---------------|
|--44444444444444444-55555555555555555--|--4--7\5-----5\2--|


VERSE
------------------------|
------------------------|
------------------------|
------------------------|
------------------------|
-4/9------7\5-------5\2-|


VERSE
|------------------------------------------------|
|------------------------------------------------|
|-==-6-=-==-6-=-==-6-=-==-6-=-PM-----------------|
|-66-6-6-66-6-6-66-6-6-66-6-6-==================-|
|-44-4-4-44-4-4-44-4-4-44-4-4-777777777-44444444-|
|-----------------------------555555555-22222222-|


VERSE
--------------------------------------------------|
--------------------------------------------------|
--------------------------------------------------|
--==-7/9-==-6/7-==-4/6-==-------------------------|
--44-----44-----44-----44-7-7777777777--X\PICK----|
----------------------------------------X\\SCRAPE-|


CHORUS
---------------------------------------------------------------------|
---------------------------------------------------------------------|
99999999999999999------------------999999999999999-------------------|
99999999999999999-7777777-99999999-999999999999999-7777777-999999999-|
77777777777777777-7777777-99999999-777777777777777-7777777-999999999-|
00000000000000000-5555555-77777777-000000000000000-5555555-777777777-|


CHORUS
----------------------------------------------------------------------|
----------------------------------------------------------------------|
99999999999999999-----------------------------------------------------|
99999999999999999-7777777-99999999--7---7/9---9\7--7/9999999999999999-|
77777777777777777-7777777-99999999--7---7/9---9\7--7/9999999999999999-|
00000000000000000-5555555-77777777--5---5/7---7\5--5/7777777777777777-|


|Bridge, Guitar One
|-0-----------------0---------------0---------------0--------------|
|-4-----------------4---------------4---------------4--------------|
|------------------------------------------------------------------|
|------------------------------------------------------------------|
|------------------------------------------------------------------|
|------------------------------------------------------------------|
|
|
|Bridge, Guitar Two
|-----------------------------------------|
|:---------------------------------------:|
|-----------------------------------------|
|--6666666666666666-----------------------|
|:-4444444444444444-777777777-7777777777-:|
|--4444444444444444-444444444-5555555555--|


Bridge
-----------------------------------------|
-----------------------------------------|
-----------------------------------------|
--6666666666666666-777777777-9999999999--|
--4444444444444444-777777777-9999999999--|
--4444444444444444-555555555-7777777777--|


CHORUS
---------------------------------------------------------------------|
---------------------------------------------------------------------|
99999999999999999------------------999999999999999-------------------|
99999999999999999-7777777-99999999-999999999999999-7777777-999999999-|
77777777777777777-7777777-99999999-777777777777777-7777777-999999999-|
00000000000000000-5555555-77777777-000000000000000-5555555-777777777-|



CHORUS
----------------------------------|
----------------------------------|
99999999999999999-----------------|
99999999999999999-7777777-99999999|
77777777777777777-7777777-99999999|
00000000000000000-5555555-77777777|


CHORUS
----------------------------------------|
----------------------------------------|
----------------------------------------|
7777777799999999777777779999999999999999|
7777777799999999777777779999999999999999|
5555555577777777555555557777777777777777|


OUTRO
|---------------------------------------|----------------------------|
|:-------------------------------------:|----------------------------|
|--99999999999999999--------------------|--9-------------------------|
|--99999999999999999-77777777-99999999--|--9-------------------------|
|:-77777777777777777-77777777-99999999-:|--7-------------------------|
|--77777777777777777-55555555-77777777--|--7-------------------------|
---------------------------------------------------------------------|
Suggest correction
comments
print report bad tab
guest
You may want to rate the tab now too:
select rating
Wanna post a correction for this tab? Suggest correction