Oops, an error
Loading. Please wait.

Those Lungs tab

73 views 3 this week
1 commentread comment
1 2 3 4 5
3 more votes to show rating
add to favorites
×
Save as Personal and add changes to this tab that will be seen only by you. Learn more ›
×
You can save this tab as Personal to edit and correct it or add notes. All changes will be seen only by you. Learn more »
launch autoscroll
font size
0
reset
how to read this tab
guitar tuner
edit
Autoscroll
slow
fast
+/-
esc
set tempo
stop
Author
Difficulty
Standard Tuning

[Intro]
e|-----------------|-----------------|-----------------|-----------------|
B|-----------------|-----------------|-----------------|-----------------|
G|-4-4-4-4-4-4-4-4-|-6-6-6-6-6-6-6-6-|-----------------|-4-4-4-4-2-2-2-2-|
D|-4-4-4-4-4-4-4-4-|-6-6-6-6-6-6-6-6-|-2-2-4-4-6-6-7-7-|-4-4-4-4-2-2-2-2-|
A|-2-2-2-2-2-2-2-2-|-4-4-4-4-4-4-4-4-|-0-0-0-0-0-0-0-0-|-2-2-2-2-0-0-0-0-|
E|-----------------|-----------------|-----------------|-----------------| (x2)

[Verse 1]
e|-----------------|-----------------|-----------------|-----------------|
B|-----------------|-----------------|-----------------|-----------------|
G|-4-4-4-4-4-4-4-4-|-6-6-6-6-6-6-6-6-|-9-9-9---9-9-9---|-9-9-9---9-9-9---|
D|-4-4-4-4-4-4-4-4-|-6-6-6-6-6-6-6-6-|-9-9-9---9-9-9---|-9-9-9---9-9-9---|
A|-2-2-2-2-2-2-2-2-|-4-4-4-4-4-4-4-4-|-7-7-7---7-7-7---|-7-7-7---7-7-7---|
E|-----------------|-----------------|-----------------|-----------------| (x2)

e|-----------------|-----------------|-----------------|-----------------|
B|-----------------|-----------------|-----------------|-----------------|
G|-6-6-6-6-6-6-6-6-|-9-9-9-9-9-9-9-9-|-6-6-6-6-6-6-6-6-|-2-2-2-2-2-2-2-2-|
D|-6-6-6-6-6-6-6-6-|-9-9-9-9-9-9-9-9-|-6-6-6-6-6-6-6-6-|-2-2-2-2-2-2-2-2-|
A|-4-4-4-4-4-4-4-4-|-7-7-7-7-7-7-7-7-|-4-4-4-4-4-4-4-4-|-0-0-0-0-0-0-0-0-|
E|-----------------|-----------------|-----------------|-----------------|

e|-----------------|-----------------|-----------------|-----------------|
B|-----------------|-----------------|-----------------|-----------------|
G|-4-4-4-4-4-4-4-4-|-6-6-6-6-6-6-6-6-|-9-9-9---9-9-9---|-9-9-9---9-9-9---|
D|-4-4-4-4-4-4-4-4-|-6-6-6-6-6-6-6-6-|-9-9-9---9-9-9---|-9-9-9---9-9-9---|
A|-2-2-2-2-2-2-2-2-|-4-4-4-4-4-4-4-4-|-7-7-7---7-7-7---|-7-7-7---7-7-7---|
E|-----------------|-----------------|-----------------|-----------------|

[Chorus 1] 
e|-----------------|-----------------|-----------------|-----------------|
B|-----------------|-----------------|-----------------|-----------------|
G|-4-4-4-4-4-4-4-4-|-----------------|-8-8-8-8-8-8-8-8-|-9-9-9-9-9-9-9-9-|
D|-4-4-4-4-4-4-4-4-|-6-6-6-6-6-6-6-6-|-8-8-8-8-8-8-8-8-|-9-9-9-9-9-9-9-9-|
A|-2-2-2-2-2-2-2-2-|-6-6-6-6-6-6-6-6-|-6-6-6-6-6-6-6-6-|-7-7-7-7-7-7-7-7-|
E|-----------------|-4-4-4-4-4-4-4-4-|-----------------|-----------------| (x2)

e|-----------------|-----------------|-----------------|-----------------|
B|-----------------|-----------------|-----------------|-----------------|
G|-4-4-4-4-4-4-4-4-|-3-3-3-3-3-3-3-3-|-2-2-2-2-2-2-2-2-|-9---------------|
D|-4-4-4-4-4-4-4-4-|-3-3-3-3-3-3-3-3-|-2-2-2-2-2-2-2-2-|-9---------------|
A|-2-2-2-2-2-2-2-2-|-1-1-1-1-1-1-1-1-|-0-0-0-0-0-0-0-0-|-7---------------|
E|-----------------|-----------------|-----------------|-----------------| 

e|-----------------|-----------------|-----------------|
B|-----------------|-----------------|-----------------|
G|-4---------------|-8---------------|-9-------6-------|
D|-4---------------|-8---------------|-9-------6-------|
A|-2---------------|-6---------------|-7-------4-------|
E|-----------------|-----------------|-----------------|

[Post-Chorus 1]
e|-----------------|-----------------|-----------------|-----------------|
B|-----------------|-----------------|-----------------|-----------------|
G|-4-4-4-4-4-4-4-4-|-6-6-6-6-6-6-6-6-|-----------------|-4-4-4-4-2-2-2-2-|
D|-4-4-4-4-4-4-4-4-|-6-6-6-6-6-6-6-6-|-2-2-4-4-6-6-7-7-|-4-4-4-4-2-2-2-2-|
A|-2-2-2-2-2-2-2-2-|-4-4-4-4-4-4-4-4-|-0-0-0-0-0-0-0-0-|-2-2-2-2-0-0-0-0-|
E|-----------------|-----------------|-----------------|-----------------| (x2)

[Verse 2]
e|-----------------|-----------------|-----------------|-----------------|
B|-----------------|-----------------|-----------------|-----------------|
G|-4-4-4-4-4-4-4-4-|-6-6-6-6-6-6-6-6-|-9-9-9---9-9-9---|-9-9-9---9-9-9---|
D|-4-4-4-4-4-4-4-4-|-6-6-6-6-6-6-6-6-|-9-9-9---9-9-9---|-9-9-9---9-9-9---|
A|-2-2-2-2-2-2-2-2-|-4-4-4-4-4-4-4-4-|-7-7-7---7-7-7---|-7-7-7---7-7-7---|
E|-----------------|-----------------|-----------------|-----------------| (x2)

e|-----------------|-----------------|-----------------|-----------------|
B|-----------------|-----------------|-----------------|-----------------|
G|-6-6-6-6-6-6-6-6-|-9-9-9-9-9-9-9-9-|-6-6-6-6-6-6-6-6-|-2-2-2-2-2-2-2-2-|
D|-6-6-6-6-6-6-6-6-|-9-9-9-9-9-9-9-9-|-6-6-6-6-6-6-6-6-|-2-2-2-2-2-2-2-2-|
A|-4-4-4-4-4-4-4-4-|-7-7-7-7-7-7-7-7-|-4-4-4-4-4-4-4-4-|-0-0-0-0-0-0-0-0-|
E|-----------------|-----------------|-----------------|-----------------|

e|-----------------|-----------------|-----------------|-----------------|
B|-----------------|-----------------|-----------------|-----------------|
G|-4-4-4-4-4-4-4-4-|-6-6-6-6-6-6-6-6-|-9-9-9---9-9-9---|-9-9-9---9-9-9---|
D|-4-4-4-4-4-4-4-4-|-6-6-6-6-6-6-6-6-|-9-9-9---9-9-9---|-9-9-9---9-9-9---|
A|-2-2-2-2-2-2-2-2-|-4-4-4-4-4-4-4-4-|-7-7-7---7-7-7---|-7-7-7---7-7-7---|
E|-----------------|-----------------|-----------------|-----------------|

[Chorus 2] 
e|-----------------|-----------------|-----------------|-----------------|
B|-----------------|-----------------|-----------------|-----------------|
G|-4-4-4-4-4-4-4-4-|-----------------|-8-8-8-8-8-8-8-8-|-9-9-9-9-9-9-9-9-|
D|-4-4-4-4-4-4-4-4-|-6-6-6-6-6-6-6-6-|-8-8-8-8-8-8-8-8-|-9-9-9-9-9-9-9-9-|
A|-2-2-2-2-2-2-2-2-|-6-6-6-6-6-6-6-6-|-6-6-6-6-6-6-6-6-|-7-7-7-7-7-7-7-7-|
E|-----------------|-4-4-4-4-4-4-4-4-|-----------------|-----------------| (x2)

e|-----------------|-----------------|-----------------|-----------------|
B|-----------------|-----------------|-----------------|-----------------|
G|-4-4-4-4-4-4-4-4-|-3-3-3-3-3-3-3-3-|-2-2-2-2-2-2-2-2-|-9---------------|
D|-4-4-4-4-4-4-4-4-|-3-3-3-3-3-3-3-3-|-2-2-2-2-2-2-2-2-|-9---------------|
A|-2-2-2-2-2-2-2-2-|-1-1-1-1-1-1-1-1-|-0-0-0-0-0-0-0-0-|-7---------------|
E|-----------------|-----------------|-----------------|-----------------| 

e|-----------------|-----------------|-----------------|
B|-----------------|-----------------|-----------------|
G|-4---------------|-8---------------|-9-------6-------|
D|-4---------------|-8---------------|-9-------6-------|
A|-2---------------|-6---------------|-7-------4-------|
E|-----------------|-----------------|-----------------|

[Bridge 1]
(Guitar 1)
e|-----------------|-----------------|-----------------|-----------------|
B|-----------------|-----------------|-----------------|-----------------|
G|-4---------------|-----------------|-----------------|-----------------|
D|-4---------------|-----------------|-----------------|-----------------|
A|-2---------------|-----------------|-----------------|-----------------|
E|-----------------|-----------------|-----------------|-----------------|

e|-----------------|-----------------|-----------------|-----------------|
B|-----------------|-----------------|-----------------|-----------------|
G|-4---------------|-6---------------|-8---------------|-9---------------|
D|-4---------------|-6---------------|-8---------------|-9---------------|
A|-2---------------|-4---------------|-6---------------|-7---------------|
E|-----------------|-----------------|-----------------|-----------------|

e|-----------------|-----------------|-----------------|-----------------|
B|-----------------|-----------------|-----------------|-----------------|
G|-4-4-4-4-4-4-4-4-|-6-6-6-6-6-6-6-6-|-8-8-8-8-8-8-8-8-|-9-9-9-9-9-9-9-9-|
D|-4-4-4-4-4-4-4-4-|-6-6-6-6-6-6-6-6-|-8-8-8-8-8-8-8-8-|-9-9-9-9-9-9-9-9-|
A|-2-2-2-2-2-2-2-2-|-4-4-4-4-4-4-4-4-|-6-6-6-6-6-6-6-6-|-7-7-7-7-7-7-7-7-|
E|-----------------|-----------------|-----------------|-----------------| (x2)

(Guitar 2)
e|-----------------|-----------------|-----------------|-----------------|
B|-----------------|-----------------|-----------------|-----------------|
G|-----4-----------|-----4-----------|-----4-----------|-----9-----------|
D|---4---4-----4---|---4---4-----4---|---4---4-----4---|---9---9-----9---|
A|-2---------2-----|-4---------4-----|-6---------6-----|-7---------7-----|
E|-----------------|-----------------|-----------------|-----------------| (x4)

[Bridge 2]
e|-----------------|-----------------|-----------------|-----------------|
B|-----------------|-----------------|-----------------|-----------------|
G|-6-6-6-6-6-6-6-6-|-9-9-9-9-9-9-9-9-|-6-6-6-6-6-6-6-6-|-9---9---9---9---|
D|-6-6-6-6-6-6-6-6-|-9-9-9-9-9-9-9-9-|-6-6-6-6-6-6-6-6-|-9---9---9---9---|
A|-4-4-4-4-4-4-4-4-|-7-7-7-7-7-7-7-7-|-4-4-4-4-4-4-4-4-|-7---7---7---7---|
E|-----------------|-----------------|-----------------|-----------------|

[Chorus 3] 
e|-----------------|-----------------|-----------------|-----------------|
B|-----------------|-----------------|-----------------|-----------------|
G|-4-4-4-4-4-4-4-4-|-----------------|-8-8-8-8-8-8-8-8-|-9-9-9-9-9-9-9-9-|
D|-4-4-4-4-4-4-4-4-|-6-6-6-6-6-6-6-6-|-8-8-8-8-8-8-8-8-|-9-9-9-9-9-9-9-9-|
A|-2-2-2-2-2-2-2-2-|-6-6-6-6-6-6-6-6-|-6-6-6-6-6-6-6-6-|-7-7-7-7-7-7-7-7-|
E|-----------------|-4-4-4-4-4-4-4-4-|-----------------|-----------------| (x2)

e|-----------------|-----------------|-----------------|-----------------|
B|-----------------|-----------------|-----------------|-----------------|
G|-4-4-4-4-4-4-4-4-|-3-3-3-3-3-3-3-3-|-2-2-2-2-2-2-2-2-|-9-9-9-9-9-9-9-9-|
D|-4-4-4-4-4-4-4-4-|-3-3-3-3-3-3-3-3-|-2-2-2-2-2-2-2-2-|-9-9-9-9-9-9-9-9-|
A|-2-2-2-2-2-2-2-2-|-1-1-1-1-1-1-1-1-|-0-0-0-0-0-0-0-0-|-7-7-7-7-7-7-7-7-|
E|-----------------|-----------------|-----------------|-----------------| 

e|-----------------|-----------------|-----------------|
B|-----------------|-----------------|-----------------|
G|-4---------------|-8---------------|-9-------6-------|
D|-4---------------|-8---------------|-9-------6-------|
A|-2---------------|-6---------------|-7-------4-------|
E|-----------------|-----------------|-----------------|

[Ending]
e|---|
B|---|
G|-4-|
D|-4-|
A|-2-|
E|---|

            
            
Suggest correction
Creating personal tab
Creating personal tab
You can edit any tab online and save it as your Personal.

You can edit, replace or remove any tab part or add personal notes – all changes will be seen only by you.

Personal tabs can be accessed anytime from any device, even offline.
Learn more »
Give kudos to tab author, rate the tab!
1 2 3 4 5
comments
print report bad tab
1 comment total.
0 reply
itsokimgay 10 Apr 28, 2017 11:10 PM

First!!!!!!!!!!!!!!!!

guest
You may want to rate the tab now too:
select rating
Wanna post a correction for this tab? Suggest correction