Oops, an error
Loading. Please wait.

Time To Waste Tab

version 1
version 1

Acoustic

Whole song

Interactive

8,953 views 3 this week
6 commentsread comments
1 2 3 4 5
excellent!
x 4
add to favorites
launch autoscroll
font size
0
reset
how to read this tab
guitar tuner
Tab Pro tools
  • play this tab
  • loop segment
  • change instrument
  • show fretboard
  • metronome
×
Best way to learn
"Time To Waste"
Autoscroll
slow
fast
+/-
esc
set tempo
stop
Contributor
Artist: Alkaline Trio
Song: Time To Waste
Album: Crimson


Standard Tuning


Play This for the piano part

Play x2
e|----------------------------------------------------------------|
b|----------------------------------------------------------------|
g|------------------14------13----11-----7------14------13----11--|
d|--------4-------0-------0-----0------0------0-------0-----0-----|
a|-----4-------12-------11----9------5-----12-------11----9-------|
e|---2------------------------------------------------------------|

This is when the piano part plays like higher notes
Play x2
e|------------------------------|
b|------------------------------|
g|------------------------------|
d|------14-13-11-----7-14-13-11-|
a|----9-------------------------|
e|------------------------------|



Intro
(this isn't the right amount to strum them, but its easy to figure out if you listen tot 
song, alternate between up and down strokes, fast strumming)

            Play x4
e|---2--|---2-2-2-2---0-0-0-0--0-0-0-0---2-2-2-2---|
b|---2--|---2-2-2-2---3-3-3-3--2-2-2-2---3-3-3-3---|
g|---2--|---2-2-2-2---2-2-2-2--1-1-1-1---4-4-4-4---|
d|---4--|---4-4-4-4---0-0-0-0--0-0-0-0---4-4-4-4---|
a|---4--|---4-4-4-4----------------------2-2-2-2---|
e|---2--|---2-2-2-2--------------------------------|

Verse
(if you listen you can here the chord changes)

 Play x2                      Play x 2
e|---2-------------------2--|-2----------------|
b|---2-------------------2--|-2----------------|
g|---2-------------------2--|-2----------------|
d|---4---------------2---4--|-4----6-7--2---4--|
a|---4---------------2---4--|-4----6-7--2---4--|
e|---2---------------0---2--|-2----4-5--0---2--|


Chorus
Play x4
          A             F#          D   (end with this 4th time instead of D)
e|-------------------22222222--22222222--|-----------|
b|-2222222222222222--22222222--33333333--|-----------|
g|-2222222222222222--22222222--22222222--|---7---9---|
d|-2222222222222222--44444444------------|---7---9---|
a|-------------------44444444------------|---5---7---|
e|-------------------22222222------------|-----------|


Pre Chorus
Play x4
e|--2-2-2-2--------------------------------|
b|--2-2-2-2--------------------------------|
g|--2-2-2-2---7-7-7-7--9-9-9-9-------------|
d|--4-4-4-4---x-x-x-x--x-x-x-x---4--6--2---|
a|--4-4-4-4---5-5-5-5--7-7-7-7---4--6--2---|
e|--2-2-2-2----------------------2--4--0---|

Verse
(if you listen you can here the chord changes)

 Play x2                      Play x 2
e|---2-------------------2--|-2----------------|
b|---2-------------------2--|-2----------------|
g|---2-------------------2--|-2----------------|
d|---4---------------2---4--|-4----6-7--2---4--|
a|---4---------------2---4--|-4----6-7--2---4--|
e|---2---------------0---2--|-2----4-5--0---2--|


Chorus
Play x4
          A             F#          D   (end with this 4th time instead of D)
e|-------------------22222222--22222222--|-----------|
b|-2222222222222222--22222222--33333333--|-----------|
g|-2222222222222222--22222222--22222222--|---7---9---|
d|-2222222222222222--44444444------------|---7---9---|
a|-------------------44444444------------|---5---7---|
e|-------------------22222222------------|-----------|

Bridge

e|----------------------------------------------------------------|
b|----------------------------------------------------------------|
g|------------------14------14----11-----7------14------14----11--|
d|---4-----------0-------0-----0------0------0-------0-----0------|
a|---4-------12-------11----9------5-----12-------11----9---------|
e|---2------------------------------------------------------------|


e|----------------------------------------------------------------|
b|----------------------------------------------------------------|
g|------------------14------14----11-----7------14------14----11--|
d|---4444--------0-------0-----0------0------0-------0-----0------|
a|---4444----12-------11----9------5-----12-------11----9---------|
e|---2222---------------------------------------------------------|


            Play x4
e|------2-2-2-2---0-0-0-0--0-0-0-0---2-2-2-2---|
b|------2-2-2-2---3-3-3-3--2-2-2-2---3-3-3-3---|
g|------2-2-2-2---2-2-2-2--1-1-1-1---4-4-4-4---|
d|------4-4-4-4---0-0-0-0--0-0-0-0---4-4-4-4---|
a|------4-4-4-4----------------------2-2-2-2---|
e|------2-2-2-2--------------------------------|


Chorus
Play x4
          A             F#          D   (end with this 4th time instead of D)
e|-------------------22222222--22222222--|-----------|
b|-2222222222222222--22222222--33333333--|-----------|
g|-2222222222222222--22222222--22222222--|---7---9---|
d|-2222222222222222--44444444------------|---7---9---|
a|-------------------44444444------------|---5---7---|
e|-------------------22222222------------|-----------|


Ending

e|--2-2-2-2-----------------------------------|
b|--2-2-2-2-----------------------------------|
g|--2-2-2-2---7-7-7-7--9-9-9-9---11-11-11-11--|
d|--4-4-4-4---x-x-x-x--x-x-x-x---x--x--x--x---|
a|--4-4-4-4---5-5-5-5--7-7-7-7---9--9--9--9---|
e|--2-2-2-2-----------------------------------|
comments
print report bad tab
6 comments total. Showing first comments.
0 reply
Guitar_Guy_27 wrote on April 12 2006, 07:28 pm

it doesnt fit with the actual acoustic version, but it goes good witht the actual song

0 reply
AVA_182_44 wrote on June 1 2006, 10:02 pm

yeah i meant it to be for the real song, not the acoustic version

0 reply
goatguy_64 wrote on August 20 2006, 11:08 am

Just for tabbing the piano part, you get a 5. I was looking everywhere for that! And the acoustic song actually has 2 guitars.

I want to post or [tab]
guest
You may want to rate the tab now too:
select rating
Please do not post tabs as comments. Select "correction" instead!