Oops, an error
Loading. Please wait.

Time To Waste Bass Tab

version 3
version 3

Whole song

Interactive

470 views 3 this week
no commentswrite comment
1 2 3 4 5
accurate
x 6
add to favorites
launch autoscroll
font size
0
reset
guitar tuner
Tab Pro tools
  • play this tab
  • loop segment
  • change instrument
  • show fretboard
  • metronome
×
Best way to learn
"Time To Waste"
Autoscroll
slow
fast
+/-
esc
set tempo
stop
Contributor
----------------------------------------------------------------------------
                        Alkaline Trio-Time to Waste
----------------------------------------------------------------------------
brought to u by punkbass479

Intro
G|--------------------------------------------------------------------|
D|--------------------------------------------------------------------|
A|--------------------------------------------------------------------|
E|--222222222222222-222222222222222-222222222222222-222222222222222---|

G|--------------------------------------------------------------------|
D|--------------------------------------------------------------------|
A|----------------------------------555555555555555-000000022222222---|
E|--222222222222222-222222244445555-----------------------------------| X2

Verse
G|--------------------------------------------------------------------|
D|--------------------------------------------------------------------|
A|----------------------------------55555555555555550000000022222222--|
E|--22222222222222222222222222222222----------------------------------| X3

G|--------------------------------------------------------------------|
D|--------------------------------------------------------------------|
A|----------------------------------55555555555555550000000022222222--|
E|--22222222222222224444444455555555----------------------------------|

G|--------------------------------------------------------------------|
D|------------------------------2222----------------------------------|
A|----------------------------------5555555555555555--------55555555--|
E|--2222222222222222444444445555--------------------00000000----------|

Chorus
G|--------------------------------------------------------------------|
D|--------------------------------------------------------------------|
A|--------------------------------------------------5555555555555555--|
E|--555555555555555555555555555555552222222222222222------------------| X3

G|--------------------------------------------------------------------|
D|--------------------------------------------------------------------|
A|--00000000000000000000000000000000----------------444444445---------|
E|----------------------------------2222222222222222------------------|

Interlude
G|--------------------------------------------------------------------|
D|--------------------------------------------------------------------|
A|--------------------------------------------------------------------|
E|--222222222222222-222222222222222-222222222222222-2-----4-----0-----|

Verse

Chorus

Bridge
G|--------------------------------------------------------------------|
D|--------------------------------------------------------------------|
A|--9~----------------------------------------------------------------|
E|--------------------------------------------------------------------|

G|--------------------------------------------------------------------|
D|--------------------------------------------------------------------|
A|--------------------------------------------------------------------|
E|--22222-2-----------------------------------------------------------|

G|--------------------------------------------------------------------|
D|--------------------------------------------------------------------|
A|----------------------------------55555-5---------------------------|
E|--22222-2-----------------------------------------------------------|

G|--------------------------------------------------------------------|
D|--------------------------------------------------------------------|
A|--66666-6-------------------------55555-5---------7-------5---------|
E|--------------------------------------------------------------------|

Chorus

Outro
G|--------------------------------------------------------------------|
D|--------------------------------------------------------------------|
A|----------------------------------999999999999999-999999999999999---|
E|--222222222222222-222222222222222-----------------------------------|

~:ring note
comments
print report bad tab
I want to post or [tab]
guest
You may want to rate the tab now too:
select rating
Please do not post tabs as comments. Select "correction" instead!