Oops, an error
Loading. Please wait.

Trouble Breathing Tab

version 3
version 3

Whole song

Interactive

5,039 views 3 this week
no commentswrite comment
1 2 3 4 5
accurate
x 3
add to favorites
launch autoscroll
font size
0
reset
how to read this tab
guitar tuner
Autoscroll
slow
fast
+/-
esc
set tempo
stop
Help us to improve Ultimate-Guitar.com Take our survey!
×
Author
Trouble Breathing
Tabbed by Dean
This is a great song, the tabs i found were not very good so i made my own, its at
least 95% correct. Email me at e_mericana@hotmail.com

INTRO:

e--------------------------------------------------|
b--------------------------------------------------|
g--------------------------------------------------| Repeat.
d-x---------------------6---4---2-/-4-/-2----------| 
a-x---6---7---7---7---0---0---0--------------------|  
E-x-0---0---0---0---0------------------------------|

INTRO cont.

e-----------------------------------------------------|
b-----------------------------------------------------|
g-----------------------------------------------------|
d--------2--------2-----------------------------------|
a-4-/-2--0--4-/-2-0-----------------------------------|
E-----------------------------------------------------|
        

Intro cont. 3
e----------------------------------------------|
b----------------------------------------------| Repeat as nec.
g-89999-88888-9999-----------------------------|
d-xxxxx-66666-7777-----------------------------|
a-67777----------------------------------------|
E-00000----------------------------------------|
   
                                                   
VERSE:

                                                
e------------------------------------|
b------------------------------------|
g--8-/-9-----------------------------|
d--x-/-x-----------------------------|
a--6-/-7-----------------------------|
e--0-/-0-----------------------------|

Then repeat INTRO cont. 3 quiet

Pre-Chorus
e------------------------------------------------|
b------------------------------------------------|
g-------222222--------22222----------------------|
d-------222222--------22222-------22-22-22-44----|
a-4-/-2-000000--4-/-2-00000-4-/-2-00-00-00-22----|
E------------------------------------------------|

CHORUS:
e-----------------------------------|
b-----------------------------------|
g-999999988-------------------------|
d-xxxxxxxxx-66666666-22222222-------|
a-777777766-77777777-00000000-------|
E-000000000-44444444----------------|


Repeat verse: then just before pre-chorus play :
e---------------------|
b---------------------|
g-999999999999--------|
d-999999999999--------|
a-777777777777--------|
E-000000000000--------|


e--0---------------------------------------------------------------|
b--0-(hit these ---------------------------------------------------|
g--0--strings------------------------------------------------------|
d--0--before-----2222222--------222222-------22-22-22-44-----------|
a--0--first------0000000--4-/-6-000000-4-/-2-00-00-00-22-----------|
E--0--fret)--------------------------------------------------------|
                       
Repeat chorus

Ending:

e---------------------------------------------|
b---------------------------------------------|
g---------------------------------------------|
d---------------------------66-66-99-99-22----|
a-22-222-2h4h2-22-222-2h4h2-44-44-66-66-00----|
E-00-000-------00-000-------------------------|
X2

e-------------------------------------------------0--------------|
b-------------------------------------------------0--------------|
g-------------------------------------------------1--------------|
d---------------------------66-66-44-44-22-(hold)-2--------------|
a-22-222-2h4h2-22-222-2h4h2-44-44-22-22-00--------2--------------|
E-00-000-------00-000-----------------------------0--------------|
      

tabbed by Dean.
Suggest correction new What's this?
You can suggest a correction to this tab. Community and Mods will review your correction and vote to approve or reject it.
comments
We did not receive enough feedback on this tab! Please rate:
print report bad tab
1 2 3 4 5
guest
You may want to rate the tab now too:
select rating
Please do not post tabs as comments. Select "correction" instead!