Oops, an error
Loading. Please wait.

Trouble Breathing Tab

version 4
version 4

Whole song

Interactive

728 views 1 this week
no commentswrite comment
1 2 3 4 5
please rate
add to favorites
launch autoscroll
font size
0
reset
how to read this tab
guitar tuner
Tab Pro tools
  • play this tab
  • loop segment
  • change instrument
  • show fretboard
  • metronome
×
Best way to learn
"Trouble Breathing"
Autoscroll
slow
fast
+/-
esc
set tempo
stop
Contributor
Band: Alkaline Trio
Song: Trouble Breathing
Standard Tuning: eBGDAE

Intro                        x3                                 x1
e|-----------------------------|---------------------------------|
B|-----------------------------|---------------------------------|
G|-----------------------------|---------------------------------|
D|-----------------------------|---------------------------------|
A|---6--7--7--7----11--9-7h9p7-|---6--7--7--7---11--12--14-14-14-|
E|-0--0--0--0--0-0---0--0------|-0--0--0--0--0-0--0---0----------|
  ^---- then repeat x3 --------^

Intro 2 (x3)
e|-------------|
B|-------------|
G|----------2~-|
D|----------2~-|
A|-4~--\2~--0~-|
E|-------------|


Pre Verse (x1)                                   
(Pre-verse is where they start when they are playing live)
                                  x1
e|---------------------------------|
B|---------------------------------|
G|-888888/99999999-----------------|
D|-xxxxxx-xxxxxxxx-7777-6666-7-6-4-|
A|-666666/77777777-0000-0000-0-0-0-|
E|---------------------------------|

                            x2
e|---------------------------|---------------------------------------|
B|---------------------------|---------------------------------------|
G|-888888/99999999-----------|-888888/99999999---------------------9-|
D|-xxxxxx-xxxxxxxx-7777-6666-|-xxxxxx-xxxxxxxx-7777-6666-4444-2222-9-|
A|-666666/77777777-0000-0000-|-666666/77777777-0000-0000-0000-0000-7-|
E|---------------------------|---------------------------------------|

Verse (mainly bass except for this fill): (x1)
e|------------|
B|------------|
G|-8/9~~-8/9\-|
D|-x-x---x-x--|
A|-6/7~~-6/7\-|
E|------------|

Then play Pre verse quiet in the background (play the first part x1 and the second part x1)

Pre Chorus 1 (x1)           x2                            x1
e|---------------------------|-----------------------------|
B|---------------------------|-----------------------------|
G|---------------------------|-----------------------------|
D|----------7777777777777777-|----------777-777-777-777-99-|
A|----------7777777777777777-|----------777-777-777-777-99-|
E|-9~~-\7~~-5555555555555555-|-9~~-\7~~-555-555-555-555-77-|

Chorus (x4)
e|------------------------------------|
B|------------------------------------|
G|-9999999999999999-------------------|
D|-9999999999999999-77777777-77777777-|
A|-7777777777777777-77777777-77777777-|
E|------------------44444444-55555555-|

Pre Verse (x1) (first part x1, second part x1 instead of 2), Verse (x1)

Post Verse (x1)
e|------------------|
B|------------------|
G|-9-999-999-999-99-|
D|-9-999-999-999-99-|
A|-7-777-777-777-77-|
E|------------------|

Pre Chorus 2 (x1)          x2                              x1
e|---------------------------|------------------------------|
B|---------------------------|------------------------------|
G|---------------------------|------------------------------|
D|----------7777777777777777-|-----------777-777-777-777-99-|
A|----------7777777777777777-|-----------777-777-777-777-99-|
E|-9~~-\7~~-5555555555555555-|-9~~-/11~~-555-555-555-555-77-|
Chorus (x4)


Original Outro 1 (x1)
e|-----------------------------------------------|
B|-----------------------------------------------|
G|-------------------------------66-66-44-44-2-2-|
D|-2-xx22-222-------2-xx22-222-2/66-66-44-44-2-2-|
A|-2-xx22-222-2h4p2-2-xx22-222-2/44-44-22-22-0-0-|
E|-0-xx00-000-------0-xx00-000-0-----------------|

Original Outro 2 (x1)
e|-----------------------------------------------|
B|-----------------------------------------------|
G|-------------------------------66-66-88-88-2-2-|
D|-2-xx22-222-------2-xx22-222-2/66-66-88-88-2-2-|
A|-2-xx22-222-2h4p2-2-xx22-222-2/44-44-66-66-0-0-|
E|-0-xx00-000-------0-xx00-000-0-----------------|

Original Outro 1 (x2)

Live Outro (ive seen him play this on the halloween dvd)
                                                              x2
e|-------------------------------------------------------------|
B|-------------------------------------------------------------|
G|-8/9999999-8/9999/13-13-13-13\11-11-11-11-66666666-4444-2222-|
D|-x-xxxxxxx-x-xxxx-x--x--x--x--x--x--x--x--66666666-4444-2222-|
A|-6/7777777-6/7777/11-11-11-11\9--9--9--9--44444444-2222-0000-|
E|-------------------------------------------------------------|
  
                                         x1
e|----------------------------------------|
B|----------------------------------------|
G|-8/9999999-8/9999999-66666666-4444-2222-|
D|-x-xxxxxxx-x-xxxxxxx-66666666-4444-2222-|
A|-6/7777777-6/7777777-44444444-2222-0000-|
E|----------------------------------------|

e|----------------------------------------------------------|
B|----------------------------------------------------------|
G|-8/9999999-8/13-13-13-13\11-11-11-11\9999-66-66-44-44-2-2-|
D|-x-xxxxxxx-x-x--x--x--x--x--x--x--x--xxxx-66-66-44-44-2-2-|
A|-6/7777777-6/11-11-11-11\9--9--9--9-\7777-44-44-22-22-0-0-|
E|----------------------------------------------------------|

End on
e|------|
B|------|
G|------|
D|-2~~~-|
A|-2~~~-|
E|-0~~~-|
comments
We did not receive enough feedback on this tab! Please rate:
print report bad tab
1 2 3 4 5
I want to post or [tab]
guest
You may want to rate the tab now too:
select rating
Please do not post tabs as comments. Select "correction" instead!