Oops, an error
Loading. Please wait.

Trouble Breathing Tab

version 5
version 5

Whole song

Interactive

339 views 1 this week
no commentswrite comment
1 2 3 4 5
please rate
add to favorites
launch autoscroll
font size
0
reset
how to read this tab
guitar tuner
Autoscroll
slow
fast
+/-
esc
set tempo
stop
Help us to improve Ultimate-Guitar.com Take our survey!
×
Difficulty
novice
intro pt. 1
e|--------------------------------------------------------------------|
B|--------------------------------------------------------------------|
G|--------------------------------------------------------------------|
D|--------------------------------------------------------------------|
A|-0--6--0--7--0--7--0--7---0--11--0--9--0--7--0--9-------------------|
E|--------------------------------------------------------------------|

intro pt. 2
e|--------------------------------------------------------------------|
B|--------------------------------------------------------------------|
G|--------------------------------------------------------------------|
D|--------------------------------------------------------------------|
A|-0--6--0--7--0--7--0--7---0--11--0--12--0--14--14--14---------------|
E|--------------------------------------------------------------------|


intro pt. 3
e|--------------------------------------------------------------------|
B|--------------------------------------------------------------------|
G|--------------------------------------------------------------------|
D|--------------------------------------------------------------------|
A|5---3---7---8-------------------------------------------------------|
E|--------------------------------------------------------------------|

intro pt. 4
e|--------------------------------------------------------------------|
B|--------------------------------------------------------------------|
G|9-9-9-9-9--9-9-9-9-9-9--13-13-13-13-11-11-11-11--(4 x)--------------|
D|9-9-9-9-9--9-9-9-9-9-9--13-13-13-13-11-11-11-11---------------------|
A|6-6-6-6-6--7-7-7-7-7-7--11-11-11-11--9--9--9--9---------------------|
E|--------------------------------------------------------------------|

verse pt. 1                        verse pt. 2
e|--------------------------------|-------------------------------------|
B|---------------------------.----|-------------------------------------|
G|-------------9--9----9--9-------|--------------13-13-13-11-11-11------|
D|-------------9--9----9--9-------|--9-9-9-9-9-9-11-11-11-9-9-9----(5 x)|
A|-------------6--7----6--7-------|--6-6-6-7-7-7------------------------|
E|--------------------------------|-------------------------------------|

verse pt. 3
e|--------------------------------------------------------------------|
B|--------------------------------------------------------------------|
G|-----5-5-5-5---------5-5-5-5---------55-55-55-557-------------------|
D|7-5--5-5-5-5---------5-5-5-5---------55-55-55-557-------------------|
A|5-3--3-3-3-3--5R--R--3-3-3-3--5R--R--33-33-33-335-------------------|
E|--------------------------------------------------------------------|
chorus

-----------------------------------------------------------------------|
-----------------------------------------------------------------------|
--7--------------------------------------------------------------------|
--7--then--7---8-------------------------------------------------------|
--5--------7---8-------------------------------------------------------|
-----------5---6-------------------------------------------------------|

2nd verse pt. 2 1/2:
outro.....................................................
e|-----------------|-----------------------------------|--------------|
B|-----------------|-----------------------------------|-.-.----------|
G|5----------------|7xxxx5-7xxxx5-77-777-55-555-3------|-3-3-----3R---|
D|5-(13 x)---------|7xxxx5-7xxxx5-77-777-55-555-3-(4 x)|-3-3-----3R---|
A|3----------------|5xxxx3-5xxxx3-55-555-33-333-0------|-0-0-----3R---|
E|-----------------|-----------------------------------|---------0R---|
Suggest correction
What's this?
You can suggest a correction to this tab. Community and Mods will review your correction and vote to approve or reject it.
comments
We did not receive enough feedback on this tab! Please rate:
print report bad tab
1 2 3 4 5
guest
You may want to rate the tab now too:
select rating
Please do not post tabs as comments. Select "correction" instead!