Oops, an error
Loading. Please wait.

Warbrain Bass Tab

version 1
version 1

Whole song

Interactive

2,880 views 3 this week
no commentswrite comment
1 2 3 4 5
accurate
x 4
add to favorites
launch autoscroll
font size
0
reset
guitar tuner
Autoscroll
slow
fast
+/-
esc
set tempo
stop
Help us to improve Ultimate-Guitar.com Take our survey!
×
Author
Difficulty
intermediate
I don't own this song, at all. I just wrote this to help out some folks.

Drum and Guitar Opening Here

G----------------------|--------------------------|--------------------------|
D-----------------5----|--6--6--6--6--6--6--6--6--|--6--6--6--6--6--6--6--6--|
A----------------------|--------------------------|--------------------------|
E----------------------|--------------------------|--------------------------|

     
G--------------------------|--------------------------|
D--6--6--6--6--6--6--6--6--|--6--6--6--6--6--6--6\----|
A--------------------------|--------------------------|
E--------------------------|--------------------------|

  
G--------------------------|--------------------------|
D--------------------------|--------------------------|
A--------------------------|--------------------------|
E--4--4--4--4--4--4--4--4--|--0--0--0--0--0--0--0--0--|

   
G--------------------------|--------------------------|
D--------------------------|--------------------------|
A--2--2--2--2--2--2--2--2--|--2-----------2--2--4--4--|
E--------------------------|-----2--2--2--------------|


G--------------------------|--------------------------|
D--------------------------|--------------------------|
A--------------6--6--7--7--|--------------7--7--6--6--|
E--4--4--4--4--------------|--0--0--0--0--------------|

G--------------------------|--------------------------|
D--------------4--4--2--2--|--2-----------------------|
A--2--2--2--2--------------|-----------2--2--------4--|
E--------------------------|-----2--2--------4--4-----|


G--------------------------|--------------------------|
D--------------------------|--------------------------|
A--------------------------|--------------------------|
E--4--4--4-----------------|--0--0--0-----------------|



G--------------------------|--------------------------|
D--------------------------|--------------------------|
A--2--2--2-----------------|--------------------------|
E--------------------------|-----2--2--2--2--2--2--2--|


G--------------------------|--------------------------|
D--------------------------|--------------------------|
A--------------------------|--------------------------|
E--4--4--4-----------------|--0--0--0-----------------|



G--------------------------|--------------------------|
D--------------------------|--------------------------|
A--2--2--2-----------------|--------------------------|
E--------------------------|-----2--2--2--2--2--2--2--|


G--------------------------|--------------------------|
D--------------------------|--------------------------|
A--------------------------|--------------------------|
E--4--4--4--4--4--4--4--4--|--0--0--0--0--0--0--0--0--|
  
G--------------------------|--------------------------|
D--------------------------|--------------------------|
A--2--2--2--2--2--2--2--2--|--2-----------2--2--4--4--|
E--------------------------|-----2--2--2--------------|


G--------------------------|--------------------------|
D--------------------------|--------------------------|
A--------------------------|--------------------------|
E--4--4--4--4--4--4--4--4--|--0--0--0--0--0--0--0--0--|

  
G--------------------------|--------------------------|
D--------------------------|--------------------------|
A--2--2--2--2--2--2--2--2--|--2-----------2--2--4--4--|
E--------------------------|-----2--2--2--------------|

 
G--------------------------|--------------------------|
D--------------------------|--------------------------|
A--------------------------|--------------------------|
E--0--0--0--0--0--0--0--0--|--0--0--0--0--0--0--0--0--|

  
G--------------------------|--------------------------|
D--------------------------|--------------------------|
A--------------------------|--------------------------|
E--4--4--4--4--4--4--4--4--|--2--2--2--2--2--2--2--2--|

  
G--------------------------|--------------------------|
D--------------------------|--------------------------|
A--------7--7--6--6--4--4--|--9--9--7--7--6--6--7--7--|
E--0--0--------------------|--------------------------|


G--------------------------|--------------------------|
D--------------------------|--------------------1--1--|
A--------6--6--4--4--------|--------2--2--4--4--------|
E--4--4--------------7--7--|--2--2--------------------|

 
G--------------------------|--------------------------|
D--------------------------|--------------------------|
A--7--7--7--7--7--7--7--7--|--9--9--7--7--6--6--7--7--|
E--------------------------|--------------------------|


G--------------------------|------------------------------|
D--6--6--9--9--6--6--------|--------11--11--11--10--9--9--|
A--------------------6--6--|--9--9------------------------|
E--------------------------|------------------------------|

  
G--------------------------|--------------------------|
D--------------------------|--------------------------|
A--------------------------|--------------------------|
E--0--0--0--0--0--0--0--0--|--0--0--0--0--0--0--0--0--|

   
G--------------------------|--------------------------|
D--------------------------|--------------------------|
A--------------------------|-----------------2--2--4--|
E--2--2--2--2--2--2--2--2--|--0--0--0--0--0-----------|

  
G--------------------------|--------------------------|
D--------------------------|--------------------------|
A--------------6--6--7--7--|--------------7--7--6--6--|
E--4--4--4--4--------------|--0--0--0--0--------------|

 
G--------------------------|--------------------------|
D--------------4--4--2--2--|--------------------------|
A--2--2--2--2--------------|--2-----------2--2--4--4--|
E--------------------------|-----2--2--2--------------|


G--------------------------|--------------------------|
D--------------------------|--------------------------|
A--------------6--6--7--7--|--------------7--7--6--6--|
E--4--4--4--4--------------|--0--0--0--0--------------|

  
G--------------------------|--------------------------|
D--------------4--4--2--2--|--------------------------|
A--2--2--2--2--------------|--2-----------2--2--4--4--|
E--------------------------|-----2--2--2--------------|


G--------------------------|--------------------------|
D--------------------------|--------------------------|
A--------------------------|--------------------------|
E--4--4--4-----------------|--0--0--0-----------------|

 
G--------------------------|--------------------------|
D--------------------------|--------------------------|
A--2--2--2-----------------|--------------------------|
E--------------------------|-----2--2--2--2--2--2--2--|


G--------------------------|--------------------------|
D--------------------------|--------------------------|
A--------------------------|--------------------------|
E--4--4--4-----------------|--0--0--0-----------------|



G--------------------------|--------------------------|
D--------------------------|--------------------------|
A--2--2--2-----------------|--------------------------|
E--------------------------|-----2--2--2--2--2--2--2--|

   
G--------------------------|--------------------------|
D--------------------------|--------------------------|
A--------------------------|--------------------------|
E--4--4--4--4--4--4--4--4--|--0--0--0--0--0--0--0--0--|

 
G--------------------------|--------------------------|
D--------------------------|--------------------------|
A--2--2--2--2--2--2--2--2--|--2-----------2--2--4--4--|
E--------------------------|-----2--2--2--------------|

  
G--------------------------|--------------------------|
D--------------------------|--------------------------|
A--------------------------|--------------------------|
E--4--4--4--4--4--4--4--4--|--0--0--0--0--0--0--0--0--|

   
G--------------------------|--------------------------|
D--------------------------|--------------------------|
A--2--2--2--2--2--2--2--2--|--2-----------2--2--4--4--|
E--------------------------|-----2--2--2--------------|


G--------------------------|--------------------------|
D--------------------------|--------------------------|
A--------------------------|--------------------------|
E--0--0--0--0--0--0--0--0--|--0--0--0--0--0--0--0--0--|

 
G--------------------------|--------------------------|
D--------------------------|--------------------------|
A--------------------------|--------------------------|
E--4--4--4--4--4--4--4--4--|--2--2--2--2--2--2--2--2--|



G--------------------------|--------------------------|
D--------------------------|--------------------------|
A--------7--7--6--6--4--4--|--9--9--7--7--6--6--7--7--|
E--0--0--------------------|--------------------------|


G--------------------------|--------------------------|
D--------------------------|--------------------1--1--|
A--------6--6--4--4--------|--------2--2--4--4--------|
E--4--4--------------7--7--|--2--2--------------------|

  
G--------------------------|--------------------------|
D--------------------------|--------------------------|
A--7--7--7--7--7--7--7--7--|--9--9--7--7--6--6--7--7--|
E--------------------------|--------------------------|

 
G--------------------------|------------------------------|
D--6--6--9--9--6--6--------|--------11--11--11--10--9--9--|
A--------------------6--6--|--9--9------------------------|
E--------------------------|------------------------------|

  
G--------------------------|--------------------------|
D--------------------------|--------------------------|
A--------------------------|--------------------------|
E--0--0--0--0--0--0--0--0--|--0--0--0--0--0--0--0--0--|


G--------------------------|--------------------------|
D--------------------------|--------------------------|
A--------------------------|--------------2--2--4--4--|
E--2--2--2--2--2--2--2--2--|--0--0--0--0--------------|


G--------------------------|--------------------------|
D--------------------------|--------------------------|
A--------------6--6--7--7--|--------------7--7--6--6--|
E--4--4--4--4--------------|--0--0--0--0--------------|

 
G--------------------------|--------------------------|
D--------------4--4--2--2--|--2-----------------------|
A--2--2--2--2--------------|--------------2--2--4--4--|
E--------------------------|-----2--2--2--------------|

  
G--------------------------|--------------------------|
D--------------------------|--------------------------|
A--------------6--6--7--7--|--------------7--7--6--6--|
E--4--4--4--4--------------|--0--0--0--0--------------|

 
G--------------------------|--------------------------|
D--------------4--4--2--2--|--2-----------------------|
A--2--2--2--2--------------|--------------2--2--4--4--|
E--------------------------|-----2--2--2--------------|

  
G--------------------------|--------------------------|
D--------------------------|--------------------------|
A--------------6--6--7--7--|--------------7--7--6--6--|
E--4--4--4--4--------------|--0--0--0--0--------------|

  
G--------------------------|--------------------------|
D--------------4--4--2--2--|--2-----------------------|
A--2--2--2--2--------------|--------------2--2--4--4--|
E--------------------------|-----2--2--2--------------|


G--------------------------|--------------------------|
D--------------------------|--------------------------|
A--------------6--6--7--7--|--------------7--7--6--6--|
E--4--4--4--4--------------|--0--0--0--0--------------|

               
G--------------------------|--------------------------|-------------------|
D--------------4--4--2--2--|--2-----------------------|-------------------|
A--2--2--2--2--------------|--------------2--2--4--4--|-------------------|
E--------------------------|-----2--2--2--------------|--0----------------|
                                                         ^ Let it ring
Suggest correction
What's this?
You can suggest a correction to this tab. Community and Mods will review your correction and vote to approve or reject it.
comments
print report bad tab
guest
You may want to rate the tab now too:
select rating
Please do not post tabs as comments. Select "correction" instead!