Oops, an error
Loading. Please wait.

Warbrain Bass Tab

version 2
version 2

Whole song

Interactive

491 views 1 this week
no commentswrite comment
1 2 3 4 5
2 more votes to show rating
add to favorites
launch autoscroll
font size
0
reset
guitar tuner
Autoscroll
slow
fast
+/-
esc
set tempo
stop
Help us to improve Ultimate-Guitar.com Take our survey!
×
Author
Difficulty
Song:Warbrain
Album:Remains
Artist:Alkaline Trio
Genre:Punk Rock
Year:2007
Tuning:Standard (E,A,D,G)

Intro 1 Pt.1 x1
G-----------|
D(   x2  )--|
A-9-11x15---|
E-----------|

Intro 1 Pt.2 x1
G------------------------------------------------|
D------------------------------------------------|
A-----------22222222-------1-1-2-2------6-6-7-7--|
E-4x8--0x8------------2222---------4444----------|

G-----------------------------------------|
D-----------------------------------------|
A------6-6-7-7------9-9-7-7------1-1-2-2--|
E-0000---------7777---------2222----------|

Verse 1 Pt.1 x2
G-------------------------|
D-------------------------|
A-----------222-----------|
E-444--000-------2222222--|

Verse 1 Pt.2 x2
G-------------------------------|
D-------------------------------|
A-----------22222222------------|
E-4x8--0x8------------22222222--|

Pre-Chorus 1 Pt.1 x2
G----------------------|
D----------------------|
A----------------------|
E-0x16--4x8--22222222--|

Pre-Chorus 1 Pt.2 x2
G-----------------|
D-----------------|
A-----------------|
E-0x16--4x8--2x8--|

Pre-Chorus 1 Pt.3 x1
G--------------------------------------------|
D--------------------8-8-9-9--------9-9-8-8--|
A-7x16--11-11-11-11-----------9999-----------|
E--------------------------------------------|

Chorus 1 Pt.1 x1
G--------------------------------------------------------|
D--------------------------------4-4-2-2-----------------|
A-----------------6-6-7-7--2222-----------------1-1-2-2--|
E-44444444--0000--------------------------2222-----------|

Chorus 1 Pt.2 x1
G-------------------------------|
D-------------------------------|
A-------6-6-7-7--------6-6-7-7--|
E-4444-----------0000-----------|

G-------------------------------|
D-------------------------------|
A-------9-9-7-7--------1-1-2-2--|
E-7777-----------2222-----------|

Then:
*Verse 2 Pt.1 x2
*Verse 2 Pt.2 x2
*Pre-Chorus 2 Pt.1 x2

Pre-Chorus 2 Pt.2 x1
G--------------------------------------------|
D--------------------8-8-9-9--------9-9-8-8--|
A-7x16--11-11-11-11-----------9999-----------|
E--------------------------------------------|

G----------------------|
D----------------------|
A----------------------|
E-0x16--2x8--00000000--|

Chorus 2 Pt.1 x1
G--------------------------|
D--------------------------|
A-----------------6-6-7-7--|
E-44444444--0000-----------|

G-------------------------------|
D-------4-4-2-2-----------------|
A-2222-----------------1-1-2-2--|
E----------------2222-----------|

Chorus 2 Pt.2 x3
G-------------------------------|
D-------------------------------|
A-------6-6-7-7--------6-6-7-7--|
E-4444-----------0000-----------|

G-------------------------------|
D-------------------------------|
A-------9-9-7-7--------1-1-2-2--|
E-7777-----------2222-----------|

Outro 1 x1
G-----------------|
D-----------------|
A-----------------|
E-0~~~~~~~~~~~~~--|

Song Order:
*Intro 1 Pt.1 x1
*Intro 1 Pt.2 x1
*Verse 1 Pt.1 x2
*Verse 1 Pt.2 x2
*Pre-Chorus 1 Pt.1 x2
*Pre-Chorus 1 Pt.2 x2
*Pre-Chorus 1 Pt.3 x1
*Chorus 1 Pt.1 x1
*Chorus 1 Pt.2 x1
*Verse 2 Pt.1 x2
*Verse 2 Pt.2 x2
*Pre-Chorus 2 Pt.1 x1
*Pre-Chorus 2 Pt.2 x1
*Chorus 2 Pt.1 x1
*Chorus 2 Pt.2 x3
*Outro 1 x1

*Here Is A Link If You Wanna Play Along:
http://www.youtube.com/watch?v=C004b8qZifI

*Don't Forget To Rate And Comment If You
Liked The Tab, And Comment Any Corrections,
I Welcome Corrections.
Suggest correction
Give kudos to tab author, rate the tab!
1 2 3 4 5
comments
print report bad tab
guest
You may want to rate the tab now too:
select rating
Wanna post a correction for this tab? Suggest correction