Oops, an error
Loading. Please wait.

Wash Away Tab

version 2
version 2

Whole song

Interactive

1,111 views 1 this week
no commentswrite comment
1 2 3 4 5
excellent!
x 3
add to favorites
launch autoscroll
font size
0
reset
how to read this tab
guitar tuner
Tab Pro tools
  • play this tab
  • loop segment
  • change instrument
  • show fretboard
  • metronome
×
Best way to learn
"Wash Away"
Autoscroll
slow
fast
+/-
esc
set tempo
stop
Contributor
Difficulty
novice
Alkaline trio
Tony Hawk's American Wasteland Soundtrack
"Wash Away" - TSOL Cover 
Tabbed by: IanK
live_and_burn@hotmail.com

Standard tuning


Intro:
e|------------------------|-----------------|
B|------------------------|-----------------|
G|---77777777-77667766----|-10--------pick--|
D|---55555555-77777777----|-10-(x16)--slide-|
A|------------55555555----|-8---------------|
E|------------------------|-----------------|

Verse:
e|---------------------|
B|---------------------|
G|-55555555------------|
D|-55555555-33333333---|
A|-33333333-33333333---|
E|----------11111111-x4|

Chorus:
e|---------------------------------------------|
B|---------------------------------------------|
G|-22222222-33333333-22222222-3333-5555-7777---|
D|-22222222-33333333-22222222-3333-5555-7777---|
A|-00000000-11111111-00000000-1111-3333-5555---|
E|-------------------------------------------x2|

Pre solo:
e|-----------------|
B|-----------------|
G|---5---5---5---5-|
D|-2-5-2-5-2-5-2-5-|
A|-2-3-2-3-2-3-2-3-|
E|-0---0---0---0---|Play these same chords over solo

Solo:
e|---------------------------------|
B|-7h8-8-8-8-8-8-8-8-7h8-8-8-8-8-8-|
G|---------------------------------|
D|---------------------------------|
A|---------------------------------|
E|---------------------------------|

e|-8-8-8-8/7-7-7-7/5-5-5-5-5/3-3-2-2-2-2-2h3-3-3-3-3--------|
B|----------------------------------------------------------|
G|----------------------------------------------------------|
D|----------------------------------------------------------|
A|----------------------------------------------------------|
E|----------------------------------------------------------|

e|---------------------------------|
B|-7h8-8-8-8-8-8-8-8-7h8-8-8-8-8-8-|
G|---------------------------------|
D|---------------------------------|
A|---------------------------------|
E|---------------------------------|

e|-8-8-8-8/7-7-7-7/5-5-5-5-5/3-3-2-2-2-2-2/3-3-3/5-5-5/7-7-8-7-5--|
B|----------------------------------------------------------------|
G|----------------------------------------------------------------|
D|----------------------------------------------------------------|
A|----------------------------------------------------------------|
E|----------------------------------------------------------------|


Outro
e|------------------------|
B|------------------------|
G|-55555555---------------|
D|-55555555-33333333----7-|
A|-33333333-33333333----7-|
E|----------11111111-x4-5-|

| /  slide up
|   slide down
| h  hammer-on
| p  pull-off
| ~  vibrato
| +  harmonic
| x  Mute note
comments
We did not receive enough feedback on this tab! Please rate:
print report bad tab
1 2 3 4 5
I want to post or [tab]
guest
You may want to rate the tab now too:
select rating
Please do not post tabs as comments. Select "correction" instead!