Oops, an error
Loading. Please wait.

Weak Week Tab

version 3
version 3

Whole song

318 views 3 this week
no commentswrite comment
1 2 3 4 5
please rate
add to favorites
launch autoscroll
font size
0
reset
how to read this tab
guitar tuner
Tab Pro tools
  • play this tab
  • loop segment
  • change instrument
  • show fretboard
  • metronome
×
Best way to learn
"Weak Week"
Autoscroll
slow
fast
+/-
esc
set tempo
stop
Contributor
-------------------------------------------------------------------------------
     Weak Week - Alkaline Trio
-------------------------------------------------------------------------------
Tabbed by: Notoriousdoc
Email: notoriousdoc99@hotmail.co.uk

This song is their demo, the quality's awful so it might not be 100% perfect but
it sounds fine. Listen to the track to get the timing right.

Tuning: Standard

Intro
e|-----------------|
B|-----------------|
G|-----------------|
D|--5-7-7-7-7-7-7--|
A|--5-7-7-7-7-7-7--|
E|--3-5-5-5-5-5-5--|

Verse
e|--------------------------------------------------------------------|
B|--------------------------------------------------------------------|
G|--------------------------------------------------------------------|
D|-7-7-7-7-9-9-9-9-5-5-5-5-2-2-2-2-4-4-4-4-5-5-5-5-7-7-xxxx-7-7-xxxx--|
A|-7-7-7-7-9-9-9-9-5-5-5-5-2-2-2-2-4-4-4-4-5-5-5-5-7-7-xxxx-7-7-xxxx--|
E|-5-5-5-5-7-7-7-7-3-3-3-3-0-0-0-0-2-2-2-2-3-3-3-3-5-5-xxxx-5-5-xxxx--| x2

Pre-chorus
e|-----------------------------------------------|
B|-----------------------------------------------|
G|--9-9-9-9-11-11-11-11-12-12-12-12-12-12-12-12--|
D|--9-9-9-9-11-11-11-11-12-12-12-12-12-12-12-12--|
A|--7-7-7-7--9--9--9--9-10-10-10-10-10-10-10-10--|

Chorus-I'm not too sure about this but it's the nearest I could get
E|-------------------------------------------------------------------|
B|-------------------------------------------------------------------|
G|------------------7-7-7-7-7-7-7-7----------------------------------|
D|--9-9-9-9-9-9-9-9-7-7-7-7-7-7-7-7-7-7-7-7-7-7-7-7-7-7-7-7-7-7-7-7--|
A|--9-9-9-9-9-9-9-9-5-5-5-5-5-5-5-5-7-7-7-7-7-7-7-7-7-7-7-7-7-7-7-7--|
E|--7-7-7-7-7-7-7-7-----------------5-5-5-5-5-5-5-5-5-5-5-5-5-5-5-5--|

Bridge- This is for if you need to use a guitar to play the bassline
e|---------------------------------------------------------|
B|---------------------------------------------------------|
G|-----9-9-7-6-----7-6-4-----------------------------------|
D|--9--9-9-7-6--5--7-6-4--7-7-7-7-7-7-7-7-7-7-7-7-7-7-7-7--|
A|--9--7-7-5-4--5--5-4-2--7-7-7-7-7-7-7-7-7-7-7-7-7-7-7-7--|
E|--7-----------3---------5-5-5-5-5-5-5-5-5-5-5-5-5-5-5-5--|


| /  slide up
| \  slide down
| h  hammer-on
| p  pull-off
| ~  vibrato
| +  harmonic
| x  Mute note

(c) D. Cove 2006
===============================================================================
comments
We did not receive enough feedback on this tab! Please rate:
print report bad tab
1 2 3 4 5
I want to post or [tab]
guest
You may want to rate the tab now too:
select rating
Please do not post tabs as comments. Select "correction" instead!