Oops, an error
Loading. Please wait.

Weve Had Enough Tab

version 1
version 1

Whole song

Interactive

17,980 views 39 this week
7 commentsread comments
1 2 3 4 5
excellent!
x 28
add to favorites
launch autoscroll
font size
0
reset
how to read this tab
guitar tuner
Autoscroll
slow
fast
+/-
esc
set tempo
stop
Help us to improve Ultimate-Guitar.com Take our survey!
×
ok, off the up and coming album, 'We've had enough' is the first song I've heard off it.
Sounds good already!


Intro
|---------------------------------------------------------------------------
|---------------------------------------------------------------------------
|-----------9-9-9-9-9-9-9-9------------6-6-6-6-6-6-6-6-6------------4-4-4-4-
|-4-2-4-2-4-x-x-x-x-x-x-x-x--4-2-4-2-4-x-x-x-x-x-x-x-x-x--4-2-4-2-4-x-x-x-x-
|-4-2-4-2-4-7-7-7-7-7-7-7-7--4-2-4-2-4-4-4-4-4-4-4-4-4-4--4-2-4-2-4-2-2-2-2-
|-2-0-2-0-2------------------2-0-2-0-2--------------------2-0-2-0-2---------

--------------------------
--------------------------
-4-4-4-4------------------
-x-x-x-x--4-2-7-6-9-7-6-2-
-2-2-2-2--4-2-7-6-9-7-6-2-
----------2-0-5-4-7-5-4-0-

Verse
|------------------------------------------------------------------------------
|------------------------------------------------------------------------------
|------------------------------------------------------------------------------
|-4-4--4-4-4--4-4-4--4-4-2--4-4--4-4-4--4-4-4--4-4-2--7-7--7-7-7--7-7-7--7-7-6-
|-4-4--4-4-4--4-4-4--4-4-2--4-4--4-4-4--4-4-4--4-4-2--7-7--7-7-7--7-7-7--7-7-6-
|-2-2--2-2-2--2-2-2--2-2-0--2-2--2-2-2--2-2-2--2-2-0--5-5--5-5-5--5-5-5--5-5-4-

----------------------------
----------------------------
------------7-7-7-7-6-6-6-6-
-9-9--9-9-9-7-7-7-7-6-6-6-6-
-9-9--9-9-9-5-5-5-5-4-4-4-4-
-7-7--7-7-7-----------------

Break
|--------------------------------------------
|--------------------------------------------
|-----------4-4-4-4-4-4-4-4------------------
|-4-2-4-2-4-x-x-x-x-x-x-x-x--4-2-7-6-9-7-6-2-
|-4-2-4-2-4-2-2-2-2-2-2-2-2--4-2-7-6-9-7-6-2-
|-2-0-2-0-2------------------2-0-5-4-7-5-4-0-

Verse

Chorus
|------------------------------------------------------------------------------
|------------------------------------------------------------------------------
|---------------------------------------------------7--------------------------
|----7----------------------------4-----------------7---------7----------------
|----7----------------------------4-----------------5---------7----------------
|----5----------------------------2---------------------------5----------------
 And son we've had enough, please turn that f*cking radio off, ain't nothing on 

-----------------------------------
-----------------------------------
---------------------------------7-
-------------------4-------------7-
-------------------4-------------5-
-------------------2---------------
the airwave in the dispair we feel

Break 2
|----------------------------------------------------------
|----------------------------------------------------------
|----------------------------------------------------------
|-4-4-2-2-4-4-2-2-4-4-2-2-4^--4-4-2-2-4-4-2-2-4-4-2-2-4^-4-
|----------------------------------------------------------
|----------------------------------------------------------

Verse (palm muted except for last 2 chords)
|---------------------------------------------------------------------------
|---------------------------------------------------------------------------
|---------------------------------------------------------------------------
|-4-------------------------------------------------------------------------
|-4-------------------------------------------------------------------------
|-2-------------------------------------------------------------------------
 In the shadows where the heads hang low, you hear voices as the wind blows, 

-----------------------------------------------------------------------------
-----------------------------------------------------------------------------
-------------------------------------------7-------------6-------------------
--7-----------------------9----------------7-------------6----4--------------
--7-----------------------9----------------5-------------4----4--------------
--5-----------------------7-----------------------------------2--------------
 asking "can't you see?", reminding you to breathe, it's only time before it 

-----------------------------------------------------------------------------
-----------------------------------------------------------------------------
-----------------------------------------------------------------------------
---------------------------------------------------7-------------------------
---------------------------------------------------7-------------------------
---------------------------------------------------5-------------------------
 catches up, to you and all your broken, look I've found a better way, to get 

---------------------
---------------------
--------------7---6--
-9------------x---x--
-9------------5---4--
-7-------------------
 even with my enemies

Chorus (x2)
extra lyrics: "..but son we've had enough, put on another sound(?) and turn
it up, ain't nothing on the airwave in the hatred we feel"

Bridge
|-----------------------------------------------------------------------
|-----------------------------------------------------------------------
|-------7~----------9~----------7~----9-9-9-9-9-9-9-9-9-9-9-9-9-9-9-9-9-
|-7~----7~----7~----9~----7~----7~----9-9-9-9-9-9-9-9-9-9-9-9-9-9-9-9-9-
|-7~----5~----7~----7~----7~----5~----7-7-7-7-7-7-7-7-7-7-7-7-7-7-7-7-7-
|-5~----------5~----------5~--------------------------------------------

same bridge playing over lyrics

Outro
|---------------------------------------------------------------------------------
|-10-10-10-10-10-10-10-10-10-10-10-10-10-10-10-10---------------------------------
|-9--9--9--9--9--9--9--9--9--9--9--9--9--9--9--9--9-9-9-9-9-9-9-9-6-6-6-6-7-7-7-7-
|-7--7--7--7--7--7--7--7--7--7--7--7--7--7--7--7--x-x-x-x-x-x-x-x-x-x-x-x-x-x-x-x-
|-------------------------------------------------7-7-7-7-7-7-7-7-4-4-4-4-5-5-5-5-
|---------------------------------------------------------------------------------

|-------------------
|-------------------
|-------------------
|-------------------
|-------------------
|-2-4-5-4-7-5-4-0-2-

that is the whole song. any questions? andrewbiles@hotmail.com
Suggest correction
comments
print report bad tab
7 comments total. Showing first comments.
0 reply
MOOREKARL182 10 wrote on June 29 2003, 12:00 am

im gonna see alkaline trio at leeds festival in like a few weeks!! woohhoo
this tab rocks i cant really spot any major mistakes. good job, you should tab out the whole album!!!! id be most appreciative! karlos

0 reply
blink182fan9491 106 wrote on August 25 2004, 12:00 am

its not and son its thats it weve had enough

0 reply
afirocker00 140 wrote on February 16 2005, 12:00 am

Very nice.This tab rocks.5 STARS!!

guest
You may want to rate the tab now too:
select rating
Please do not post tabs as comments. Select "correction" instead!