Oops, an error
Loading. Please wait.

Weve Had Enough Tab

version 3
version 3

Whole song

Interactive

426 views 1 this week
no commentswrite comment
1 2 3 4 5
please rate
add to favorites
launch autoscroll
font size
0
reset
how to read this tab
guitar tuner
Autoscroll
slow
fast
+/-
esc
set tempo
stop
Help us to improve Ultimate-Guitar.com Take our survey!
×
this is my first song from alkaline trio so i hope you like it.

any shit destinypunk@hotmail.com

INTRO

1--------------------------------------------------------------------
2--------------------------------------------------------------------
3--------------------------------------------------------------------
4-----------------------2-2-2-2-2-2---------------------------------- 1 part
5--------------------------------------------------------4-4-4-4-4-4-
6--2-2-0-0-2-2-0-0-2-2--------------2-2-0-0-2-2-0-0-2-2--------------

1-------------------------------------------------------------------
2-------------------------------------------------------------------
3-------------------------------------------------------------------
4------------------------------------------------------------------- 2 part
5-----------------------2-2-2-2-2-2------------------2-2------------
6--2-2-0-0-2-2-0-0-2-2---------------2-2-4-4-5-5-4-4-----5-5-4-0----

VERSE

1---------------------------------------------------------------------
2---------------------------------------------------------------------
3---------------------------------------------------------------------
4--4-4-x-4-4-4-x-x--------4-4-x-4-4-4-x-x--------7-7-x-7-7-7-x-x------
5--4-4-x-4-4-4-x-x-0-0-0--4-4-x-4-4-4-x-x-0-0-0--7-7-x-7-7-7-x-x-0-0-0
6--2-2-x-2-2-2-x-x-0-0-0--2-2-x-2-2-2-x-x-0-0-0--5-5-x-5-5-5-x-x-0-0-0

1---------------------------------------------------------------------
2---------------------------------------------------------------------
3--4-4-x-4-4-4-x-x--7-7-7-7--6-6-6-6----------------------------------
4--4-4-x-4-4-4-x-x--x-x-x-x--x-x-x-x----------------------------------
5--2-2-x-2-2-2-x-x--5-5-5-5--4-4-4-4----------------------------------
6---------------------------------------------------------------------

the all verse x2, and then repeat the 2 part from the intro, then the verse,then the chorus:

CHORUS

1---------------------------------------------
2---------------------------------------------
3----------------------------7-7-7-7-7-7-7-7--
4--7-7-7-7-7-7-7-7--4-4-4-4--7-7-7-7-7-7-7-7-- X2
5--7-7-7-7-7-7-7-7--4-4-4-4--5-5-5-5-5-5-5-5--
6--5-5-5-5-5-5-5-5--2-2-2-2-------------------

this is not from the chorus

1-----------------------------------
2-----------------------------------
3-----------------------------------
4--4-4-2-2-4-4-2-2-4-4-2-(4)-2-2-4--
5-----------------------------------
6-----------------------------------

then its a kind of efect in the verse but its the same note,and then do the chorus x2 and then:

BRIDGE

1---------------------------------------
2---------------------------------------
3-----7-----9-------7--9-9-9-9-9-9-9-9--
4--7--7--7--9----7--7--9-9-9-9-9-9-9-9-- x2
5--7--5--7--7----7--5--7-7-7-7-7-7-7-7--
6--5-----5-------5----------------------

then do this for four times:

1------------------------------------------------------
2------------------------------------------------------
3--14-14-14-14-14-14-14-14--9-9-9-9-9-9--6-6-6--7-7-7--
4--x--x--x--x--x--x--x--x---x-x-x-x-x-x--x-x-x--x-x-x-- x4
5--12-12-12-12-12-12-12-12--7-7-7-7-7-7--4-4-4--5-5-5--
6------------------------------------------------------

the end its like this:

1---------------------------------
2---------------------------------
3---------------------------------
4---------------------------------
5------------------2-2----------4-
6--2-2-4-4-5-5-4-4-----5-5-4-0--2-
Suggest correction
What's this?
You can suggest a correction to this tab. Community and Mods will review your correction and vote to approve or reject it.
comments
We did not receive enough feedback on this tab! Please rate:
print report bad tab
1 2 3 4 5
guest
You may want to rate the tab now too:
select rating
Please do not post tabs as comments. Select "correction" instead!