Oops, an error
Loading. Please wait.

Youre Dead Bass Tab

version 1
version 1

Whole song

Interactive

1,448 views 3 this week
3 commentsread comments
1 2 3 4 5
1 last vote to show rating
add to favorites
launch autoscroll
font size
0
reset
guitar tuner
Autoscroll
slow
fast
+/-
esc
set tempo
stop
Help us to improve Ultimate-Guitar.com Take our survey!
×
Author
Saw this song had a lot of requests so thought I'd tab it...

Standard tuning
4/4 timing

Intro
|---------9-----------|---------------|
|-----9---------6h76h7|-----9---------|
|6/7----7-------------|6/7----7\22-00-| x 2
|---0-----------------|---0-----------|

Verse
|--------------|------------|----------------|------------|
|----------9---|------------|----------9/11--|------------|
|-----7--------|------22-00-|-----7----------|------22-00-|
|00------------|0-----------|00--------------|0-----------|

|---------9-----------|---------------|
|-----9---------6h76h7|-----9---------|
|6/7----7-------------|6/7----7\22-00-| 
|---0-----------------|---0-----------|

|---------9-----------|----------------|
|-----9---------6h76h7|----------------|
|6/7----7-------------|0000000022222222|
|---0-----------------|----------------|

Break
|----------------|----------------|
|----------------|----------------|
|7799779922222222|7799779900000000|
|----------------|----------------|

Verse
|--------------|------------|----------------|------------|
|----------9---|------------|-----9----9/11--|------------|
|-----7--------|------22-00-|----------------|------22-00-|
|00------------|0-----------|00--------------|0-----------|

|---------9-----------|---------------|
|-----9---------6h76h7|-----9---------|
|6/7----7----7--------|6/7----7\22-00-| 
|---0-----------------|---0-----------|

|---------9-----------|----------------|
|-----9---------6h76h7|----------------|
|6/7----7----7--------|0000000022222222|
|---0-----------------|----------------|

Chorus
|----------------|----------------|----------------|----------------|
|----------------|----9977--------|----------------|----------------|
|7799779922222222|7799----00000000|7799776622222222|0000000000000000|
|----------------|----------------|----------------|----------------|

Break
|---------9-----------|---------------|
|-----9---------6h76h7|-----9---------|
|6/7----7----7--------|6/7----7\22-00-| x2
|---0-----------------|---0-----------|

Verse
|--------------|------------|----------------|------------|
|----------9---|------------|----------9/11--|------------|
|-----7--------|------22-00-|-----7----------|------22-00-|
|00------------|0-----------|00--------------|0-----------|

|---------9-----------|---------------|
|-----9---------6h76h7|-----9---------|
|6/7----7-------------|6/7----7\22-00-| 
|---0-----------------|---0-----------|

|---------9-----------|----------------|
|-----9---------6h76h7|----------------|
|6/7----7-------------|0000000022222222|
|---0-----------------|----------------|

Chorus
|----------------|----------------|----------------|----------------|
|----------4---4-|----997777777777|----------4-4-4-|----------------|
|7799779922-222-2|7799----00000000|7799776622-2-2-2|0000000000000000|
|----------------|----------------|----------------|----------------|

|----------------|----------------|----------------|----------------|
|----------4-4-4-|----9977--------|----------4-4-4-|----------------|
|7799779922-2-2-2|7799----00000000|7799979722-2-2-2|0000000000000000|
|----------------|----------------|----------------|----------------|

Middle 8
|----------------|----------------|
|----------------|----------------|
|4444444444444444|----------------| x 2
|----------------|4444444455555555|

|----------------|----------------|----------------|----------------|
|--6---6---6---6-|--6---6---------|--6---6---6---6-|----------------|
|44-444-444-444-4|----------------|44-444-444-444-4|----------------|
|----------------|44-444-455555555|----------------|4444444477777777|

Chorus
|----------------|----------------|----------------|----------------|
|----------4-4-4-|----99777-7-7-7-|----------------|----------------|
|7799779922-2-2-2|7799-----0-0-0-0|7799979722222222|0000000000000000|
|----------------|----------------|----------------|----------------|

|----------------|----------------|----------------|----------------|
|----------------|----9977--------|----------------|----------------|
|7799779922222222|7799----00000000|7799776622222222|0000000000002222|
|----------------|----------------|----------------|----------------|

|---------------|
|---------------|
|---------------|
|0~-------------|


Suggest correction
Give kudos to tab author, rate the tab!
1 2 3 4 5
comments
print report bad tab
3 comments total.
0 reply
einar 166 Sep 10, 2009 05:09 PM

Everything sounds perfect apart from the 6/7 on the A string, every time i play that it sounds wrong

0 reply
spiff-corgi 811 Sep 11, 2009 05:33 PM, edited on April 7 2014, 07:37 am

i honestly have no idea what you're on about, listen to the third verse where there's just bass.

0 reply
spiff-corgi 811 Sep 11, 2009 05:35 PM, edited on April 7 2014, 07:37 am

If you'd rather just play that:|---------9-----------|---------------||-----9---------6h76h7|-----9---------||7------7----7--------|7------7\22-00-| |---0-----------------|---0-----------|the 6 is a grace note, you don't have to play it.

guest
You may want to rate the tab now too:
select rating
Wanna post a correction for this tab? Suggest correction