Oops, an error
Loading. Please wait.

Original Me Bass Tab

by All
40 views 1 this week
no commentswrite comment
1 2 3 4 5
3 more votes to show rating
add to favorites
launch autoscroll
font size
0
reset
guitar tuner
Autoscroll
slow
fast
+/-
esc
set tempo
stop
Help us to improve Ultimate-Guitar.com Take our survey!
×
Author
Difficulty
intermediate
About this tab version
This song has not been transcribed yet on UG. Was this info helpful? Yes No
This tab has been made thanks to the great cover made by Fuzzy Dustmite
https://youtu.be/F-_QD-sbl-c

[Intro]
G|------------------------------11--------------------------------------13------|
D|-------------7---7-9---/9-9-9----9---------------9---9-11---/11-11-11----11---|
A|-5-0-5-7-5-5---5---------------------7-0-7-9-7-7---7--------------------------|
E|------------------------------------------------------------------------------|

G|-----------------------------------|
D|-12-11-9---------------------------|
A|---------12-11-9-------------------|
E|-----------------12-10-12----0-----|

[Verse]
G|------------------------------------------------------------------|
D|------------------------------------------------------------------|
A|---------------------------------5-5-5-5-5-5-5-5------------------|
E|-7-7-7-7-7-7-7-7-7-7-7-7-7-7-7-7-----------------2-2-2-2-2-2-2-2--|

G|---------------------------------------------------------------------------------------|
D|---------------------------------------------------------------------------------------|
A|-----------------10-10-10-10-10-10-10-------------------------12----9-9-9-9-9-9--------|
E|-7-7-7-7-7-7-7-7----------------------12-10-10-10-10-10-10-10----10-------------10-9---|

[Chorus 1]
G|-------------------------------------------------------------------------------------------|
D|--------------------------------7-9-7---7--------------------------------------------------|
A|-------------------7-7-7----7-9-------9---9-7-5---5----------------------------------------|
E|-5--5------5--5----------7----------------------7---7-5-3---3-3-3-3-3-3-3-3-3-3-3-3-3-3-3--|

G|------------------------------11-----|
D|-------------7---7-9---/9-9-9----9---|
A|-5-0-5-7---5---5---------------------|
E|-------------------------------------|

[Verse]
G|------------------------------------------------------------------|
D|------------------------------------------------------------------|
A|---------------------------------5-5-5-5-5-5-5-5------------------|
E|-7-7-7-7-7-7-7-7-7-7-7-7-7-7-7-7-----------------2-2-2-2-2-2-2-2--|

G|---------------------------------------------------------------------------------------|
D|---------------------------------------------------------------------------------------|
A|-----------------10-10-10-10-10-10-10-------------------------12----9-9-9-9-9-9--------|
E|-7-7-7-7-7-7-7-7----------------------12-10-10-10-10-10-10-10----10-------------10-9---|

[Chorus 2]
G|----------------------------------------------------------------------------------------------------|
D|--------------------------------7-9-7---7-----------------------------------------------------------|
A|-------------------7-7-7----7-9-------9---9-7-5---5-----------------------10-10-10-10-10-10-10-10---|
E|-5--5------5--5----------7----------------------7---7-5-3---3-3-3-3-3-3-3---------------------------|

G|------------------------------------|
D|-12----12-11---9---9-7--------------|
A|----12-----------9-----7/10-10-9-9--|
E|------------------------------------|


[Bridge 1]
G|-let-ring---------------------------------------------------------|
D|-7----------------------------------------------------------------|
A|-5-5-5-5-5-5-5-5-5-5-5-5-5-5-5-5----------------------------------|
E|---------------------------------5-5-5-5-5-5-5-5-5-5-5-5-5-5-5-5--|

G|------------------------------------------------------------------|
D|------------------------------------------------------------------|
A|-------------------------------------------------------7/9-9-7-7--|
E|-3-3-3-3-3-3-3-3-3-3-3-3-3-3-3-3-5-5-5-5-5-5-5-5-5-5-5------------|

G|------------------------------------------------------------------|
D|------------------------------------------------------------------|
A|-5-5-5-5-5-5-5-5-5-5-5-5-5-5-5-5-7-7-7-7-7-7-7-7-7-7-7-7-7-7-7-7--|
E|------------------------------------------------------------------|

G|----------------------------------------------------------------------------------|
D|----------------------------------------------------------------------------------|
A|---------------------------------12-12-12-12-12-12-12-12--------------------------|
E|-3-3-3-3-3-3-3-3-3-3-3-3-3-3-3-3-------------------------5-5-5-5-5-5-5-5-5-5-5-5--|


[Bridge 2]
G|-------------------------------------------------------------------------------5-------|
D|-----------------------10----------------------------------------------3---5/7-----7---|
A|---------5-----7-8-8-7---------------5-----7-8-8-7-10------------3-5-5-----------------|
E|-0-1-1-0-3-------------------0-1-1-0-3-------------------0-1-1-0-----------------------|

G|---------------------|
D|-10-9-7--------------|
A|--------10-9-7-------|
E|---------------10-0--|

[Verse]
G|------------------------------------------------------------------|
D|------------------------------------------------------------------|
A|---------------------------------5-5-5-5-5-5-5-5------------------|
E|-7-7-7-7-7-7-7-7-7-7-7-7-7-7-7-7-----------------2-2-2-2-2-2-2-2--|

G|---------------------------------------------------------------------------------------|
D|---------------------------------------------------------------------------------------|
A|-----------------10-10-10-10-10-10-10-------------------------12----9-9-9-9-9-9--------|
E|-7-7-7-7-7-7-7-7----------------------12-10-10-10-10-10-10-10----10-------------10-9---|

[Chorus 1]
G|-------------------------------------------------------------------------------------------|
D|--------------------------------7-9-7---7--------------------------------------------------|
A|-------------------7-7-7----7-9-------9---9-7-5---5----------------------------------------|
E|-5--5------5--5----------7----------------------7---7-5-3---3-3-3-3-3-3-3-3-3-3-3-3-3-3-3--|

G|------------------------------11-----|
D|-------------7---7-9---/9-9-9----9---|
A|-5-0-5-7---5---5---------------------|
E|-------------------------------------|

[Chorus 2]
G|----------------------------------------------------------------------------------------------------|
D|--------------------------------7-9-7---7-----------------------------------------------------------|
A|-------------------7-7-7----7-9-------9---9-7-5---5-----------------------10-10-10-10-10-10-10-10---|
E|-5--5------5--5----------7----------------------7---7-5-3---3-3-3-3-3-3-3---------------------------|

G|------------------------------------|
D|-12----12-11---9---9-7--------------|
A|----12-----------9-----7/10-10-9-9--|
E|------------------------------------|

[Bridge 3]
G|-let-ring---------------------------------------------------------|
D|-7----------------------------------------------------------------|
A|-5-5-5-5-5-5-5-5-5-5-5-5-5-5-5-5----------------------------------|
E|---------------------------------5-5-5-5-5-5-5-5-5-5-5-5-5-5-5-5--|

G|------------------------------------------------------------------|
D|-------------2-2-3-3-2-2------------------------------------------|
A|-----2-2-5-5-------------5-5-2-2-----------------------7/9-9-7-7--|
E|-3-3-----------------------------5-5-5-5-5-5-5-5-5-5-5------------|

G|------------------------------------------------------------------|
D|------------------------------------------------------------------|
A|-5-5-5-5-5-5-5-5-5-5-5-5-5-5-5-5-7-7-7-7-7-7-7-7-7-7-7-7-7-7-7-7--|
E|------------------------------------------------------------------|

G|------------------------------------------------------------------|
D|------------------------------------------------------------------|
A|-2-2-2-2-2-2-2-2-2-2-2-2-2-2-2-2-4-4-4-4-4-4-4-4-4-4-4-4-4-4-4-4--|
E|------------------------------------------------------------------|

G|------------------------------------------------------------------|
D|------------------------------------------------------------------|
A|-5-5-5-5-5-5-5-5-5-5-5-5-5-5-5-5----------------------------------|
E|---------------------------------5-5-5-5-5-5-5-5-5-5-5-5-5-5-5-5--|

G|------------------------------------------------------------------|
D|------------------------------------------------------------------|
A|-------------------------------------------------------7/9-9-7-7--|
E|-3-3-3-3-3-3-3-3-3-3-3-3-3-3-3-3-5-5-5-5-5-5-5-5-5-5-5------------|

G|------------------------------------------------------------------|
D|------------------------------------------------------------------|
A|-5-5-5-5-5-5-5-5-5-5-5-5-5-5-5-5-7-7-7-7-7-7-7-7-7-7-7-7-7-7-7-7--|
E|------------------------------------------------------------------|

G|-------------------------------------------------------------------------------------------------|
D|-------------------------------------------------------------------------------------------------|
A|-10-10-10-10-10-10-10-10-10-10-10-10-10-10-10-10-12-12-12-12-12-12-12-12-------------------------|
E|-------------------------------------------------------------------------5-5-5-5-5-5-5-5-5-5-5-5-|

[End]
G|-------------------------------------------------------------------------------5------|
D|-----------------------10----------------------------------------------3---5/7-----7--|
A|---------5-----7-8-8-7---------------5-----7-8-8-7-10------------3-5-5----------------|
E|-0-1-1-0-3-------------------0-1-1-0-3-------------------0-1-1-0----------------------|

G|-----------------------------|
D|-10-9-7----------------------|
A|--------10-9-7---------------|
E|---------------10---0--------|

************************************

| /   slide up
| \   slide down

************************************


Suggest correction
Give kudos to tab author, rate the tab!
1 2 3 4 5
comments
print report bad tab
guest
You may want to rate the tab now too:
select rating
Wanna post a correction for this tab? Suggest correction