Oops, an error
Loading. Please wait.

Somebody Said tab

184 views 1 this week
1 commentread comment
1 2 3 4 5
2 more votes to show rating
add to favorites
×
Save as Personal and add changes to this tab that will be seen only by you. Learn more ›
×
You can save this tab as Personal to edit and correct it or add notes. All changes will be seen only by you. Learn more »
launch autoscroll
font size
0
reset
how to read this tab
guitar tuner
edit
Autoscroll
slow
fast
+/-
esc
set tempo
stop
Author
Somebody said by All About Eve

What a lush song!Enjoy!

Intro 

E-------7---|-------10----|-----8---|-15-------14-------12-|
B--8------8-|----------10-|-------8-|----13-------13-------|
G-----7-----|-------------|------9--|-------12-------12----|
D--5--------|-------------|---------|-12-------------------|
A-----------|-9-----------|-7-------|----------------------|
E-----------|----10-------|---8-----|----------------------|

Verse

G  F#/Dsus4  Cadd7
G  F#/Dsus4  Cadd7
Em7  Asus4  Em7  Cm

Chorus

G  B/Dsus4 Cadd7  Dsus4
G  B/Dsus4 Cadd7  Cm

~~~~~~~~~~~~~~~~~~~~~~
G:        3 2 0 0 3 3
F#/Dsus4: 2 0 0 2 3 3
Cadd7:    x 3 2 0 3 3
Em7:      0 2 2 0 3 0
Asus4:    x 0 2 2 3 0
Cm:       x 3 5 5 4 3
B/Dsus4:  x 2 0 2 3 3
Dsus4:    X X 0 2 3 3

mikey
:-)
mikelongworth@lineone.net

            
            
Suggest correction
Creating personal tab
Creating personal tab
You can edit any tab online and save it as your Personal.

You can edit, replace or remove any tab part or add personal notes – all changes will be seen only by you.

Personal tabs can be accessed anytime from any device, even offline.
Learn more »
Give kudos to tab author, rate the tab!
1 2 3 4 5
comments
print report bad tab
1 comment total.
0 reply
mikeyl 212 Jun 14, 2004 08:00 PM

The B/sus4 in the chorus should, i think, really be played as:

E-------1-------|
B-----3-----3---|
G---0-----0-----|
D---------------|
A---------------|
E-1-----------1-|

sorry, should think before i drink!
mikey
:-)

guest
You may want to rate the tab now too:
select rating
Wanna post a correction for this tab? Suggest correction