Oops, an error
Loading. Please wait.

Better Living Through Catastrophe Tab

version 1
version 1

Solo

Whole song

Interactive

7,638 views 1 this week
1 commentread comment
1 2 3 4 5
worth learning
x 3
add to favorites
launch autoscroll
font size
0
reset
how to read this tab
guitar tuner
Tab Pro tools
  • play this tab
  • loop segment
  • change instrument
  • show fretboard
  • metronome
Autoscroll
slow
fast
+/-
esc
set tempo
stop
Contributor
Tuning:Drop B

Riff1

e|-------------------------------------------------------------------------|
B|-------------------------------------------------------------------------|
G|-------------------------------------------------------------------------|
D|-0------------0------------0----------------8------------5---------------|
A|-0---5-5s7-7--0---5-5s8-8--0---5-5s8-7s8-7--8---8-8-7-8--5---7-7p5-5ph---|
E|-0------------0------------0----------------8------------5---------------|

Serve riff1 as the rhythm for this part
e|-------------------------------------------------------------------------|
B|-------------------------------------------------------------------------|
G|-------------------------------------------------------------------------|
D|-0---5-5s7-7----------5-5-------7----5s8-7-5-7-8-7-8-8s10s8-8s5-5s7-7----|
A|-0----------8-8-8-8-------8-7-8--8-8---------------------------------5ph-|
E|-0-----------------------------------------------------------------------|
Repeat twice
e|-------------------------------------------------------------------------|
B|-------------------------------------------------------------------------|
G|-------------------------------------------------------------------------|
D|-7--0-0--10-0-x12--------------------------------------------------------|
A|-5--0-0--8--0------------------------------------------------------------|
E|----0-0-----0------------------------------------------------------------|
      * *     *
e|-------------------------------------------------------------------------|
B|-------------------------------------------------------------------------|
G|-------------------------------------------------------------------------|
D|-7--0-0--9--0-x12--------------------------------------------------------|
A|-5--0-0--7--0------------------------------------------------------------|
E|----0-0-----0------------------------------------------------------------|
      * *     *
e|-------------------------------------------------------------------------|
B|-------------------------------------------------------------------------|
G|-------------------------------------------------------------------------|
D|-8-8-8---7-8s5-5-5-5-7---------------------------------------------------|
A|-8-8-8---5-8s5-5-5-5-5---------------------------------------------------|
E|-8-8-8-----8s5-5-5-5-5---------------------------------------------------|
     * *           * *


Im not sure about the tremolo picking part, so i didnt tab it to avoid confusions and 
riffs cuz im lazy

e|-------------------------------------------------------------------------|
B|------------------12--------11-------------------------------------------|
G|---------7--7--10-------------10-----------------------------------------|
D|-------7--7---------------------12-11-8-11-12-13-------------------------|
A|----5-8------------------------------------------------------------------|
E|-0-0----------------0-0-000----------------------------------------------|
   * *

  sweep picking
e|-------------------10---------17-13--------------13-17t22----------------|
B|-----------------10----------------15----------15------------------------|
G|-------7--10-7-10--------------------14------14--------------------------|
D|------7--------------------------------15--15----------------------------|
A|----8------------------------------------17------------------------------|
E|-8-8-----------------0-0-000---------------------------------------------|

e|-------------------------------------------------------------------------|
B|-------------------------------------------------------------------------|
G|---------7-------------7-------------------------------------------------|
D|-------7--------------7-8-7-----7-8--------------------------------------|
A|----5-8------------5-8-----8-7-8-----------------------------------------|
E|-0-0------0-0-000x2------------------------------------------------------|
   * *      * * ***

If you dont mind i'll skip directly to the part almost before the solo cuz i dont know 
of the parts, so dont kill me!

(up and down stroke)well, to some parts..repeat x2
e|-------------------------------------------------------------------------|
B|-------------------------------------------------------------------------|
G|--7-x5-9--10---------10-x4---12-x4--14-12-10-12-10-9---------------------|
D|--x----x--x----------x-------x------x--x--x--x--x--x---------------------|
A|--5----7--8----------8-------10-----12-10-8--10-8--7---------------------|
E|-------------------------------------------------------------------------|

............................solo........................................

e|-------------------------------------------------------------------------|
B|---------10-11-13--------10-11-13----------------------------------------|
G|--9-10-12---------9-10-12----------------10-12-14--------10-12-14--------|
D|---------------------------------10-12-14--------10-12-14----------------|
A|-------------------------------------------------------------------------|
E|-------------------------------------------------------------------------|


e|-------------------------------------------------------------------------|
B|---------------------------------------10-11-----------------------------|
G|--10-9-----9----------------7---9-10-12-----12-10-9----------------------|
D|------12-10-12-10-8-10-8-7-8-----------------------12-10-8---------------|
A|-------------------------------------------------------------------------|
E|-------------------------------------------------------------------------|

continued..
e|-------------------------------------------------------------------------|
B|-------------------------------------------------------------------------|
G|-------------------------------------------------------------------------|
D|--10-8-7-8-7-5-----------------------------------------------------------|
A|--------------10-8-7-8-7-5-5~--------------------------------------------|
E|-------------------------------------------------------------------------|
these are Series Of Hammer on And Pulloffs.
SOHAP 1
e|-------------------------------------------------------------------------|
B|-------------------------------------------------------------------------|
G|---10-12-14-10-12-14-10-12-14-10-12-14-10-12-14-10-12-14-----------------|
D|-------------------------------------------------------------------------|
A|-------------------------------------------------------------------------|
E|-------------------------------------------------------------------------|

SOHAP 2
e|-------------------------------------------------------------------------|
B|-------------------------------------------------------------------------|
G|---12-14-15-12-14-15-12-14-15-12-14-15-12-14-15-12-14-15-----------------|
D|-------------------------------------------------------------------------|
A|-------------------------------------------------------------------------|
E|-------------------------------------------------------------------------|

SOHAP 3
e|-------------------------------------------------------------------------|
B|-------------------------------------------------------------------------|
G|-------------------------------------------------------------------------|
D|---9-10-12-9-10-12-9-10-12-9-10-12-9-10-12-9-10-12-----------------------|
A|-------------------------------------------------------------------------|
E|-------------------------------------------------------------------------|
e|-------------------------------------------------------------------------|
SOHAP 4
e|-------------------------------------------------------------------------|
B|-------------------------------------------------------------------------|
G|---10-12-14-10-12-14-10-12-14---7-9-10-7-9-10-7-9-10---------------------|
D|-------------------------------------------------------------------------|
A|-------------------------------------------------------------------------|
E|-------------------------------------------------------------------------|
e|-------------------------------------------------------------------------|

so repeat those series twice then this.
e|-------------------------------------------------------------------------|
B|-------------------------------------------------------------------------|
G|---9hb--7~-10s12-10-9-10-12-14~-14h15p14-12-12s14-14~--------------------|
D|-------------------------------------------------------------------------|
A|-------------------------------------------------------------------------|
E|-------------------------------------------------------------------------|


e|-------------------------------------------------------------------------|
B|-------------------------------------------------------------------------|
G|----10-9-----------------------------------------------------------------|
D|--------12-10-8-10-8-7-8-7-5---------------------------------------------|
A|----------------------------10-8-7-8-7-5-7-5-3s5h8p5---------------------|
E|-------------------------------------------------------------------------|
end of solo
............................................................................

repeat 3x (**)
e|-------------------------------------------------------------------------|
B|-------------------------------------------------------------------------|
G|-------------------------------------------------------------------------|
D|-0-0-0-0-0---0-0-0-0---0-0-0-0--0-10-0-7---------------------------------|
A|-0-0-0-0-0---0-0-0-0---0-0-0-0--0-8--0-5---------------------------------|
E|-0-0-0-0-0---0-0-0-0---0-0-0-0--0----0-----------------------------------|
   * * * * *   * * * *   * * * *  *    *

then..
e|-------------------------------------------------------------------------|
B|-------------------------------------------------------------------------|
G|-------------------------------------------------------------------------|
D|-------------------------------------------------------------------------|
A|--13-12-10-12-10-8-10-8-7-8-7-5------------------------------------------|
E|-------------------------------10-8-7-8-7-5-7-5-3-5-3-2-0----------------|

after that just repeat (**)then the ending which sounds really cool!(well for me)lol
e|-------------------------------------------------------------------------|
B|--------------------------------10~------------/-------------------------|
G|----------------------------------13~-----------/-pickslide--------------|
D|-0~----------------------------------------------/-----------------------|
A|-0~----------------------------------------------------------------------|
E|-0~----------------------------------------------------------------------|
comments
We did not receive enough feedback on this tab! Please rate:
print report bad tab
1 2 3 4 5
1 comment total.
0 reply
minkar_man72 wrote on December 16 2011, 08:54 pm

there are a lot of small mistakes but i think you can figure out how its played baseed on this tab.

and the solo is pretty messed up. but besides that pretty decent tab! :)

I want to post or [tab]
guest
You may want to rate the tab now too:
select rating
Please do not post tabs as comments. Select "correction" instead!