Oops, an error
Loading. Please wait.
We have an official Black Gold Reign tab made by UG professional guitarists. Check out the tab »
×
5,505 views 1 this week
2 commentsread comments
1 2 3 4 5
x 4
add to favorites
guitar tuner
Autoscroll
slow
fast
+/-
esc
set tempo
stop
"Black Gold Reign"
demo version
Play now

or get full version for Free

×
Get full version now!
Learn and play this song
in Tab Pro
Try for free

or get $10 off Welcome Bonus

Get welcome bonus
Get access to Tab Pro version of “Black Gold Reign”!
Tab Pro is a premium guitar tab service, available on PC, Mac, iOS and Android
TRY FOR FREE
Your download will start in 7 seconds
×
Like this song? We have more! Follow us on Facebook for daily tips, lessons and other guitar-related content.
To download “Black Gold Reign” Guitar Pro tab click button below
Please note that you must have Guitar Pro software installed on your
computer in order to view this file.
Suggest correction
comments
report bad tab
2 comments total.
0 reply
billybusa 6,379 Jul 08, 2009 04:45 AM

Awesome!

Two things though, the very first solo goes:

[CODE]---------------------------------------------
-------------------------------10------------
-----------------------9-11-13----13-11-9----
------------------9-11--------------------13-
----------9-11-12----------------------------
--9-11-12------------------------------------
---------------------------------------------

-----------------------------------|
-----------------------------------|
-----------------------------------|
--11-9-----------------------------|
-------12-11-9---------------------|
---------------12-11-7-9~--------|
-----------------------------------|[/CODE]

2nd thing: Ben chugs this is the beginning:
[CODE]-4--
-5--
-4--[/CODE]

0 reply
billybusa 6,379 Jul 08, 2009 04:46 AM

I guess code tags doesn't work haha.

I rated it 5* btw just change what I said above.

guest
You may want to rate the tab now too:
select rating