Oops, an error
Loading. Please wait.

Eradication Tab

version 1
version 1

Intro

Whole song

Interactive

5,734 views 1 this week
4 commentsread comments
1 2 3 4 5
x 3
add to favorites
launch autoscroll
font size
0
reset
how to read this tab
guitar tuner
Autoscroll
slow
fast
+/-
esc
set tempo
stop
Help us to improve Ultimate-Guitar.com Take our survey!
×
Author
Difficulty
Tuning
intermediate
B F# B E G# C#
All Shall Perish- Eradication
The Price of Existence
Nuclear Blast
Drop B

 C#|------------|----5-10-5-------6-11-6--|
 G#|------------|---6------6-----7------7-|
 E |------------|--7--------7---8--------8|
 B |-7--7-5-2-3-|-7----------8-8----------|
 F#|-8--8-7-4-5-|-------------------------|
 B |------------|-------------------------|

 C#|-------------------------------|
 G#|-------------------------------|
  E |------------------------------|
 B |----3---3-------3--3--3-6-6----|
 F#|----5---5-------5--5--5-8-8----|
 B |-0-0--0---0-0-0---0--0---------|

 C#|------------------------------|---------------|
 G#|------------------------------|---------------|
 E |------------------------------|---------------|
 B |----6---6-------6--6--6-11-11-|----9/12\9-----|
 F#|----8---8-------8--8--8-9-9---|----------11-8-|
 B |-0-0--0---0-0-0---0--0--------|-0-0-----------|

 C#|---------------------------|
 G#|---------------------------|
 E |---------------------------|
 B |----3---3-------6--6-----6-|
 F#|----5---5-------8--8-----8-|
 B |-0-0--0---0-0-0---0--0-0---|

 C#|---------------------------------------------------|
 G#|---------------------------------------------------|
 E |---------------------------------------------------|
 B |--------9-12-9-12-9-12-9-12--------6-9-6-9-6-9-6-9-|
 F#|---------------------------------------------------|
 B |-0-0-0-0--------------------0-0-0-0----------------|

 C#|---------------------------------------|
 G#|---------------------------------------|
 E |---------------------------------------|
 B |---------------------------------------|
 F#|----------5---6---5----------8---9---8-|
 B |-0-0-0--0---0---0---9-9-9--9---9---9---|

 C#|----------------------------|
 G#|----------------------------|
 E |----------------------------|
 B |----3---3-------3--3--3-6-6-|
 F#|----5---5-------5--5--5-8-8-|
 B |-0-0--0---0-0-0---0--0------|

 C#|------------------------------|---------------|
 G#|------------------------------|---------------|
 E |------------------------------|---------------|
 B |----6---6-------6--6--6-11-11-|----9/12\9-----|
 F#|----8---8-------8--8--8-9-9---|----------11-8-|
 B |-0-0--0---0-0-0---0--0--------|-0-0-----------|

 C#|---------------------------|
 G#|---------------------------|
 E |---------------------------|
 B |----3---3-------6--6-----6-|
 F#|----5---5-------8--8-----8-|
 B |-0-0--0---0-0-0---0--0-0---|

 C#|---------------------------------------------------|
 G#|---------------------------------------------------|
 E |---------------------------------------------------|
 B |--------9-12-9-12-9-12-9-12--------6-9-6-9-6-9-6-9-|
 F#|---------------------------------------------------|
 B |-0-0-0-0--------------------0-0-0-0----------------|

 C#|---------------------------------------|---|
 G#|---------------------------------------|---|
 E |---------------------------------------|---|
 B |---------------------------------------|---|
 F#|----------5---6---5----------8---9---8-|-0-|
 B |-0-0-0--0---0---0---9-9-9--9---9---9---|-0-|
Suggest correction
Give kudos to tab author, rate the tab!
1 2 3 4 5
comments
print report bad tab
4 comments total. Showing first comments.
+1 reply
FlameIbrah 103 Jan 30, 2007 05:50 PM

all the notes are right, but some parts put in chords are actually harmonised, one playing the higher note and the other the lower.

+2 reply
NKHero07 10 May 09, 2007 06:57 PM

really good but, can u finish it? and tab "we hold these truths"

+1 reply
6dead6god6 10 Sep 12, 2007 09:51 PM

hey its not bad. Lets finish the song alright?

guest
You may want to rate the tab now too:
select rating
Wanna post a correction for this tab? Suggest correction