Oops, an error
Loading. Please wait.

Eradication Tab

version 2
version 2

Intro

Whole song

Interactive

1,795 views 3 this week
no commentswrite comment
1 2 3 4 5
not so good
x 1
add to favorites
launch autoscroll
font size
0
reset
how to read this tab
guitar tuner
Tab Pro tools
  • play this tab
  • loop segment
  • change instrument
  • show fretboard
  • metronome
Autoscroll
slow
fast
+/-
esc
set tempo
stop
Contributor
This tab is 100% by ear.
And that means its not all correct.
The 5 string sweeps in the middle are a guess, but it sounds close enough to post.

(note:this is a 6 string tab.)


Pre solo for rhythem is just open b and F#.


(2:37)

|  |--3---|  |--3--|  |--3--|  |--3--|
|  E   E  E  E  E  E  E  E  E  E  E  E
|--------15-19-15----------16-20-16------|
|-----17----------17----18----------18---|
|-16-----------------17------------------|
|----------------------------------------|
|----------------------------------------|
|----------------------------------------|


|  W                       H      H       W
|-----------------------|--------------|-----------------------|
|-----------------------|--------------|-----------------------|
|-----------------------|--------------|-----------------------|
|-12--------------------|-14-----15----|-11--------------------|
|-----------------------|--------------|-----------------------|
|-----------------------|--------------|-----------------------|


|  |--3---|  |--3--|  |--3--|  |--3--|
|  E   E  E  E  E  E  E  E  E  E  E  E
|--------15-19-15----------16-20-16-----|
|-----17----------17----18----------18--|
|-16-----------------17-----------------|
|---------------------------------------|
|---------------------------------------|
|---------------------------------------|

|    |--3--|  |--3---|  |---3---|  |--3--|
|    E  E  E  E   E  E  E  E    E  E  E  E
||---------------------13-17---13----------|
||o-----------------15------------15-------|
||---------------14------------------14----|
||--------14-15-------------------------15-|
||o-12-15----------------------------------|
||-----------------------------------------|

|  |--3---|  |--3--|  |--3--|  |--3--|    |--3--|  |--3---|  |---3---|  |--3--|
|  E   E  E  E  E  E  E  E  E  E  E  E    E  E  E  E   E  E  E  E    E  E  E  E
|--------------------12-16-12----------|--------------------15-19---15----------|
|-----------------14----------14-------|-----------------17------------17-------|
|--------------13----------------13----|--------------16------------------16----|
|--------13-14----------------------14-|-------16-17-------------------------17-|
|-11--14-------------------------------|-14-17----------------------------------|
|--------------------------------------|----------------------------------------|


  1.                                       2.
                                            |--3--|                       |--3--|

|
|  |--3---|  |--3--|  |--3--|  |--3--|      |-------3-------|  |-------3--------|
|  E   E  E  E  E  E  E  E  E  E  E  E      E  E  E  E   E  E  E  E    E  E  E  E
|---------------------------------------||-18-17-15-----------17-15---13-----------|
|--------------------18-17-15----------o||----------18--17-15------------17-15-13--|
|--------------14-15----------17-15-13--||-----------------------------------------|
|--------14-15--------------------------||-----------------------------------------|
|-12--15-------------------------------o||-----------------------------------------|
|---------------------------------------||-----------------------------------------|


Rhythem guitar repeats this until the end of the solo.

|-------------------------------------------------------------|
|-------------------------------------------------------------|
|-------------------------------------------------------------|
|(7tr10)-----(8tr11)----(5tr8)-----(7tr10)----(3tr7)----------|(2tr6)
|-------------------------------------------------------------|
|-------------------------------------------------------------|


(2:53)

|
|               ~~~~~
|  H.          +Q       Q        Q   Q   Q     H.          E  E    S     S  S  S  S  S  S S  S  S  S  S  S  S  S  S
|--------------------|----------------------|-------------------|----------17-17-18-18-20-20-18-18-17-17-------------|
|-15b17=======(15)r--|-15-------14--15--17--|-18----------17-18-|-20----20-------------------------------20-20-18-18-|
|--------------------|----------------------|-------------------|----------------------------------------------------|
|--------------------|----------------------|-------------------|----------------------------------------------------|
|--------------------|----------------------|-------------------|----------------------------------------------------|
|--------------------|----------------------|-------------------|----------------------------------------------------|

|
|              ~~~
|                                  |--3--|               |--3--|
|  H.          Q      H.           E  E  E    H.         E  E  E    H.         Q
|------------------|-----------------------|---------------------|------------------|
|-18b20=======18r--|-17-----------17-18-17-|-15---------15-17-15-|-14---------18----|
|------------------|-----------------------|---------------------|------------------|
|------------------|-----------------------|---------------------|------------------|
|------------------|-----------------------|---------------------|------------------|
|------------------|-----------------------|---------------------|------------------|

|
|                       |--3--|  |--3--|
|  H.       Q     h     E  E  E  E  E  E
|--------------|-------------------------|
|-17-------14--|-15-------------17-18-20-|
|--------------|-------16-17-19----------|
|--------------|-------------------------|
|--------------|-------------------------|
|--------------|-------------------------|


|
|                    |--3--|  |--3--|  |--3--|
|  Q.    Q.    Q     E  E  E  E  E  E  E  E  E  q
|-22----20----18--|-18-20-18-17-18-17-15-17-15-14---|
|-----------------|---------------------------------|
|-----------------|---------------------------------|
|-----------------|---------------------------------|
|-----------------|---------------------------------|
|-----------------|---------------------------------|

(3:08)

   |------3-------|  |--------3--------|       |------3-------|  |--------3--------|
   E  E  E  E  E  E  E  E  E  E  E     E       E  E  E  E  E  E  E  E  E  E  E     E
|-22-20-18-20-18-17-18-17-15-17-15----13----|-22-20-18-20-18-17-18-17-15-17-15----13----|
|-------------------------------------------|-------------------------------------------|
|-------------------------------------------|-------------------------------------------|
|-------------------------------------------|-------------------------------------------|
|-------------------------------------------|-------------------------------------------|
|-------------------------------------------|-------------------------------------------|

   |------3-------|  |------3-------|    |------3-------|  |------3-------|
   E  E  E  E  E  E  E  E  E  E  E  E    E  E  E  E  E  E  E  E  E  E  E  E
|-20-18-17-18-17-15-17-15-13-15-13-12-|-20-18-17-18-17-15-17-15-13-15-13-12----|
|-------------------------------------|----------------------------------------|
|-------------------------------------|----------------------------------------|
|-------------------------------------|----------------------------------------|
|-------------------------------------|----------------------------------------|
|-------------------------------------|----------------------------------------|
|
|  |--3--|  |--3--|  |--3--|        |--3--|    |--3--|  |--3--|  |--3--|        |--3--|
|  E  E  E  E  E  E  E  E  E  E     E     E    E  E  E  E  E  E  E  E  E  E     E     E
|-24-22-20-22-20-18-20-18-17-18----17----15-|-24-22-20-22-20-18-20-18-17-18--17-15--|
|-------------------------------------------|---------------------------------------|
|-------------------------------------------|---------------------------------------|
|-------------------------------------------|---------------------------------------|
|-------------------------------------------|---------------------------------------|
|-------------------------------------------|---------------------------------------|

(3:12)


  ~~~~~~~~~~~~
|  W       +H.   +E
|------------------------|
|-15------(15)--(15)\----|
|------------------------|
|------------------------|
|------------------------|
|------------------------|



End of solo.
Rate please.
comments
We did not receive enough feedback on this tab! Please rate:
print report bad tab
1 2 3 4 5
I want to post or [tab]
guest
You may want to rate the tab now too:
select rating
Please do not post tabs as comments. Select "correction" instead!