Oops, an error
Loading. Please wait.

Eradication Tab

version 3
version 3

Whole song

Interactive

10,538 views 1 this week
1 commentread comment
1 2 3 4 5
excellent!
x 3
add to favorites
launch autoscroll
font size
0
reset
how to read this tab
guitar tuner
Autoscroll
slow
fast
+/-
esc
set tempo
stop
Help us to improve Ultimate-Guitar.com Take our survey!
×
Contributor
Difficulty
Tuning
advanced
B F# B E G# C#
#----------------------------------PLEASE NOTE---------------------------------#
#This file is the author's own work and represents their interpretation of the #
#song. You may only use this file for private study, scholarship, or research. #
#------------------------------------------------------------------------------#



Gtr I (B F# B E A C# F#) - 'Untitled'

 4/4
  Gtr I
  T  T T T T T  T T T T T  T T  T  T  T  T T  T T  T  T  T  T    H  Q     H
|------------7-12p7------------------------8-13p8------------------------------|
|----------9--------9-------------------10--------10---------------------------|
|--------9------------9--------------10--------------10------------------------|
|------9----------------9---------10--------------------10---------------------|
|-7h11--------------------11-8h12--------------------------10------------------|
|---------------------------------------------------------------12-14-15-11----|
|------------------------------------------------------------------------------|
                                                                       Q


  T  T T T T T  T T T T T  T T  T  T  T  T T  T T  T  T  T  T
|------------7-12p7------------------------8-13p8----------------|
|----------9--------9-------------------10--------10-------------|
|--------9------------9--------------10--------------10----------|
|------9----------------9---------10--------------------10-------|
|-7h11--------------------11-8h12--------------------------10----|
|----------------------------------------------------------------|
|----------------------------------------------------------------|


   S  S  S S  S S  S S  S S  S  S  S  S  S  S  S  S  S  S  S  S  S  S  S  S  S
|---------------8-12p8------------------------------10----------------------------|
|------------10--------10------------------------12----12-------------------------|
|----------9--------------9----------------10h13----------13p10----------------14-|
|-------10------------------10----------12----------------------12----------14----|
|----12------------------------12-11h14----------------------------14-12h15-------|
|-12------------------------------------------------------------------------------|
|---------------------------------------------------------------------------------|

S  S  S  S  S  S  S  S
---12-17p12----------|
13----------13-------|
---------------14----|
------------------14-|
---------------------|
---------------------|
---------------------|


   S   S  S  S S  S  S S  S  S S  S  S    S  S  S
|-------------------------------------------------|
|-------------------------------------------------|
|----------------------9--------------------------|
|--------------9-10-12---12-10-9---------------10-|
|-15---8-10-12-------------------12-11------12----|
|----------------------------------------12-------|
|-------------------------------------------------|


  S  S S  S S  S S  S  S S  S S S S S  S S S
|------8-12p8-----------------------7-12p7---|
|---10--------10------------------9--------9-|
|-9--------------9--------------9------------|
|------------------10---------9--------------|
|---------------------12-7h11----------------|
|--------------------------------------------|
|--------------------------------------------|


  S S  S S  S S S  S S S S  S S S  S  S  S  S  S  S  S  S  S  S  S  S  S  S
|----------------------7-------------13-12-10-12-10----10--------------------------|
|--------------------9---9--------------------------13----13-12-13-12-10-----------|
|-9-------------7-10-------10p7----------------------------------------------------|
|---9---------9-----------------9--------------------------------------------------|
|-----11-8h11---------------------11-----------------------------------------------|
|----------------------------------------------------------------------------------|
|----------------------------------------------------------------------------------|

S  S  S  S  S   S  S
--------------------------------|
12b13r=12-10-10--9-10--12-13----|
--------------------------------|
--------------------------------|
--------------------------------|
--------------------------------|
--------------------------------|


   S   S  S  S  S  S  S  S  S  S  S  S      S   S  S   S  S  S  S   S  S  S S
|--------12-13-15-12h13p12----12--------------------------------------------------|
|-13-/15-------------------15----13-15b17r=15--13-12--12h13p12-10--10h12p10-9--13-|
|---------------------------------------------------------------------------------|
|---------------------------------------------------------------------------------|
|---------------------------------------------------------------------------------|
|---------------------------------------------------------------------------------|
|---------------------------------------------------------------------------------|

S  S  S S   S   S  S  S  S  S  S
----------------------------12--|
12-10-8-/10--------------13-----|
----------------------14--------|
-------------------14-----------|
-------------12h15--------------|
--------------------------------|
--------------------------------|


   S   S   S   S  S  S  S  S  S  S  S   S  S  S  S  S  S  S  S  S  S  S  S    S
|-17--15--13--12h13p12----12-----------17-15-13-15-13----13------------------15----|
|----------------------15----15-13-15-----------------17----17-15-17-15-13---------|
|----------------------------------------------------------------------------------|
|----------------------------------------------------------------------------------|
|----------------------------------------------------------------------------------|
|----------------------------------------------------------------------------------|
|----------------------------------------------------------------------------------|

13-12-13-12----12------------|
----------15----15-13-15-----|
-----------------------------|
-----------------------------|
-----------------------------|
-----------------------------|
-----------------------------|


   S    S  S  S  S  S  S  S  S  S  S  S  S    S  S S  S S  S S  S  S  S  S S  S
|------13-12-10-12-10----10------------------12-10-8-10-8----8--------------------------|
|-12------------------13----13-12-13-12-10----------------12---12-10-12-10-9-10b10.5----|
|---------------------------------------------------------------------------------------|
|---------------------------------------------------------------------------------------|
|---------------------------------------------------------------------------------------|
|---------------------------------------------------------------------------------------|
|---------------------------------------------------------------------------------------|

Duration Legend
---------------
W - whole; H - half; Q - quarter; E - 8th; S - 16th; T - 32nd; X - 64th; a - acciaccatura
+ - note tied to previous; . - note dotted; .. - note double dotted
Uncapitalized letters represent notes that are staccato (1/2 duration)
Irregular groupings are notated above the duration line
Duration letters will always appear directly above the note/fret number it represents the
duration for.  Duration letters with no fret number below them represent rests.  Multi-
bar rests are notated in the form Wxn, where n is the number of bars to rest for.  Low
melody durations appear below the staff

Tablature Legend
----------------
 h   - hammer-on
 p   - pull-off
 b   - bend
 pb  - pre-bend
 r   - bend release (if no number after the r, then release immediately)
 /\  - slide into or out of (from/to "nowhere")
 s   - legato slide
 S   - shift slide
 - natural harmonic
[n]  - artificial harmonic
n(n) - tapped harmonic
 ~   - vibrato
 tr  - trill
 T   - tap
 TP  - trem. picking
 PM  - palm muting
\n/  - tremolo bar dip; n = amount to dip
 \n  - tremolo bar down
 n/  - tremolo bar up
/n\  - tremolo bar inverted dip
 =   - hold bend; also acts as connecting device for hammers/pulls
 <> - volume swell (louder/softer)
 x   - on rhythm slash represents muted slash
 o   - on rhythm slash represents single note slash

Misc Legend
-----------
 |  - bar
||  - double bar
||o - repeat start
o|| - repeat end
*|  - double bar (ending)
 :  - bar (freetime)
 $  - Segno
 &  - Coda
Tempo markers -  = BPM(8/16=s8/s16), where s8 = swing 8ths, s16 = swing 16ths
comments
We did not receive enough feedback on this tab! Please rate:
print report bad tab
1 2 3 4 5
1 comment total.
0 reply
Sarin v2 223 wrote on September 10 2009, 04:44 pm

close some sweeps are off esspecially the diminished ones

I want to post or [tab]
guest
You may want to rate the tab now too:
select rating
Please do not post tabs as comments. Select "correction" instead!