Oops, an error
Loading. Please wait.

Eradication Tab

version 1
version 1

Whole song

Interactive

12,995 views 1 this week
16 commentsread comments
1 2 3 4 5
worth learning
x 7
add to favorites
launch autoscroll
font size
0
reset
how to read this tab
guitar tuner
Tab Pro tools
  • play this tab
  • loop segment
  • change instrument
  • show fretboard
  • metronome
×
Best way to learn
"Eradication"
Autoscroll
slow
fast
+/-
esc
set tempo
stop
Contributor
Tuning
B F# B E G# C#
Song:    Eradication
Band:    All Shall Perish
Album:   The Price Of Existence
Tuning:  Drop B

 +KEY+
PM. - Palm mute
PMx - mute shortly after note
* - Pinch harmonic
# - natural harmonic
\ - Slide down
/ - Slide up
x - Mute string
~ - Vibrato
t - tap note
^ - rapid pick (tremolo pick)
(note)- Ghost note
\\\- pick slide
(2x)- play single staff again
<<<2x - play whole part again

Notes: I’m only tabbing the guitar in the left headphone. i know i didnt tab the solo, 
get over it. any comments or suggestions, comment it or email me at kevincamaro02@aol.com
enjoy.


INTRO

|------------|------|
|------------|------|
|------------|------|
|-7--5--2--3-|------|
|------------|-0--1-|
|------------|-0--1-|


VERSE <<<2x

|-----------------------------------------------------------------|
|-----------------------------------------------------------------|
|-----------------------------------------------------------------|
|-----------------------------------------------------------------|
|---------5---5------5---5--8-8-8------8---8------8---8--11-11-11-|
|-000-0-0---0----0-0---0-----------0-0---0----0-0---0-------------|
PM... . .   .    . .   .           . .   .    . .   .

------------|
------------|
------------|
--0-3-0-----|
--------1-0-|
------------|

|------------------------------------------------------------------------|
|------------------------------------------------------------------------|
|------------------------------------------------------------------------|
|----------------------------------------6h9p6h9p6h9---------3h6p3h6p3h6-|
|---------5---5------8---8-----8-----------------------------------------|
|-000-0-0---0----0-0---0---0-0---0-0-0-0-------------0-0-0-0-------------|
PM... . .   .    . .   .   . .   . . . .             . . . .

-------------------------------------------|
-------------------------------------------|
-------------------------------------------|
-------------------------------------------|
-----------5---6---5-----------8---9---8---|
--0-00-0-0---0---0----9-99-9-9---9---9---9-|
PM. .. . .   .   .    . .. . .   .   .   .


INTERLUDE THINGY

|----------------------------------------------------------|
|----------------------------------------------------------|
|----------------------------------------------------------|
|-----0--------0--------0----------------------------------|
|-0-0-0----0-0-0----0-0-0--0--0--0--00-3*b5*--0--0--0--00--|
|-0-0-0----0-0-0----0-0-0--0--0--0--00--------0--0--0--00--|
PM. .      . .      . .    .  .  .  ..        .  .  .  ..

-----------------------------------------|
-----------------------------------------|
-----------------------------------------|
-------------------------------5#----5#--|
--0--0--0--00------0--0--0--00----00-----|
--0--0--0--00--7*~-0--0--0--00----00-----|
PM.  .  .  ..      .  .  .  ..    ..

-----------------------------------------------------------|
-----------------------------------------------------------|
-----------------------------------------------------------|
-----------------------------------------------------------|
--0--0--0--13p10---12p8---10p7--0--0--0--10p7---8p5---7p4--|
--0--0--0--------0------0-------0--0--0-------0-----0------|
PM.  .  .        .      .       .  .  .       .     .

-----------------------------------------------------|
-----------------------------------------------------|
-----------------------------------------------------|
--------------5#----5#-------------5#----5#----------|
--0--0--0--00----00----0--0--0--00----00----0--0--0--|
--0--0--0--00----00----0--0--0--00----00----0--0--0--|
PM.  .  .  ..    ..    .  .  .  ..    ..    .  .  .


----------------------------------------------------------------------------------|
----------------------------------------------------------------------------------|
----------------------------------------------------------------------------------|
-----------------------------------5#----5#---------------------------------------|
--13p10---12p8---10p7--0--0--0--00----00----0--0--0-10p7---8p5---7p4--0--0--0--00-|
--------0------0-------0--0--0--00----00----0--0--0------0-----0------0--0--0--00-|
PM      .      .       .  .  .  ..    ..    .  .  .      .     .

INTERLUDE THINGY PART 2

                               (3x)              (end with)
|-----------------------------------|----------------------|
|-----------------------------------|----------------------|
|-----------------------------------|----------------------|
|-----------------------------------|----------------------|
|-0--0--0--00---0--0-0-00--0--0--00-|-0--0--0--00---0--0-0-|
|-0--0--0--00---0--0-0-00--0--0--00-|-0--0--0--00---0--0-0-|
PM.  .  .  ..   .  . . ..  .  .  ..   .  .  .  ..   .  . .


VERSE 2
                                                            (2x)
|----------------------------------------------------------------|
|----------------------------------------------------------------|
|----------------------------------------------------------------|
|----------------------------------------------------------------|
|-5---4---4----------------------5---4---4---5---5---8---8--0-00-|
|---0---0----000-0-0-000-0-0-000---0---0---0---0---0---0----0-00-|
PM  .   .    ... . . ... . . ...   .   .   .   .   .   .

|-------------------------------------------------------------------|
|-------------------------------------------------------------------|
|-------------------------------------------------------------------|
|-------------------------------------------------------------------|
|---------8---7---7---------------------8---7---7---8---8---10---10-|
|-999-9-9---9---9---999-9-9-999-9-9-999---9---9---9---9---0----0----|
PM... . .   .   .   ... . . ... . . ...   .   .   .   .   .    .

---------------------------------------------------------------|
---------------------------------------------------------------|
---------------------------------------------------------------|
---------------------------------------------------------------|
------5---4---4----------------------5---4---4---5---5---8---8-|
--000---0---0----000-0-0-000-0-0-000---0---0---0---0---0---0---|
PM...   .   .    ... . . ... . . ...   .   .   .   .   .   .


VERSE 2 PART 2

                                                              (2x)
|-----------------------------------------------------------------|
|-----------------------------------------------------------------|
|-----------------------------------------------------------------|
|-----------------------------------------------------------------|
|------5---4---4----------------------5---4---4---5---5---8----8--|
|-0000-7-0-6-0-6--000-0-0-000-0-0-000-7-0-6-0-6-0-7-0-7-0-10-0-10-|
PM....   .   .    ... . . ... . . ...   .   .   .   .   .    .

|---------------------------------------------|
|---------------------------------------------|
|---------------------------------------------|
|---------------------------------------------|
|----------8---8---7---7----------------------|
|-999-9-9--9-9-9-9-9-9-9-999-9-9-999-9-9-999--|
PM... . .    .   .   .   ... . . ... . . ...

----------------------------------------------------------|
----------------------------------------------------------|
----------------------------------------------------------|
----------------------------------------------------------|
--8---8---7---7---8---7---5---5---4---4---5---------------|
--9-9-9-9-9-9-9-9-9-9-9-0-7-0-7-0-6-0-4-0-5--0-0-000-0-0--|
PM  .   .   .   .   .   .   .   .   .   .    . . ... . .

----------------------------------|
----------------------------------|
----------------------------------|
----------------------------------|
--5---5---4---4---5---5---8----8--|
--7-0-7-0-6-0-6-0-7-0-7-0-10-0-10-|
PM  .   .   .   .   .   .    .


HEAVY PART

                                     (2x)
|-----------------------------------------|
|-----------------------------------------|
|-----------------------------------------|
|----------------0---------0--------------|
|-8---8-8--7--4--0-----0-0-0--0-0-000-000-|
|-8---8-8--8--6--0-----0-0-0--0-0-000-000-|
PM    . .              . .    . . ... ...

                                                               (2x)
|-------------------------------------------------------------------|
|-------------------------------------------------------------------|
|-------------------------------------------------------------------|
|-------------------------------------------------------------------|
|-----5---4-----1h4p1p0-----0---1-------------5---4-----1h4p1p0---0-|
|-0-0---0---0-0---------0-0---0---0-1*~---0-0---0---0-0---------0-0-|

                                     (2x)
|-----------------------------------------|
|-----------------------------------------|
|-----------------------------------------|
|----------------0---------0--------------|
|-8---8-8--7--4--0-----0-0-0--0-0-000-000-|
|-8---8-8--8--6--0-----0-0-0--0-0-000-000-|
PM    . .              . .    . . ... ...

                                          (2x)
|-----------------------------------------------|
|-----------------------------------------------|
|-----------------------------------------------|
|---------------------------8-7----7------------|
|-8~---8--8/10---7---8---8------10---8h10p8-7h8-|
|-----------------------------------------------|
PM

BRIDGE / SOLO

                                       (4x)
|------------------------------------------|
|------------------------------------------|
|------------------------------------------|
|------------------------------------------|
|-0-0-0-0--0-0000-----0-0-0-0--0-0000-0000-|
|-0-0-0-0--0-0000-----0-0-0-0--0-0000-0000-|
PM. . . .  . ....     . . . .  . .... ....

   (4x, but on last time skip last 3 notes)
|-----------------------------------------------|
|-----------------------------------------------|
|-----------------------------------------------|
|-2--2--2--22-----2--2--2--22--2--222--2--2--22-|
|-1--1--1--11-----1--1--1--11--1--111--1--1--11-|
|-0--0--0--00-----0--0--0--00--0--000--0--0--00-|
PM.  .  .  ..     .  .  .  ..  .  ...  .  .  ..


AFTER SOLO <<<2x

|-------------------------------------------------------------------------------|
|-------------------------------------------------------------------------------|
|-------------------------------------------------------------------------------|
|---------------------------------------------------5h8t12-5h8t12-4h7t11-4h7t11-|
|-----5---8------4---7------5h8p5h8------5---8----------------------------------|
|-0-0---0----0-0---0----0-0----------0-0---0----0-0-----------------------------|
PM. .   .    . .   .    . .          . .   .    . .


----------------------------------------------------------------------|
----------------------------------------------------------------------|
----------------------------------------------------------------------|
----------------------------------------------------------------------|
------5---8------4---7------5h8p5------5---8------5t12-5t12-4t11-4t11-|
--0-0---0----0-0---0----0-0--------0-0---0----0-0---------------------|
PM. .   .    . .   .    . .        . .   .    . .


VERSE <<<2x

|-----------------------------------------------------------------|
|-----------------------------------------------------------------|
|-----------------------------------------------------------------|
|-----------------------------------------------------------------|
|---------5---5------5---5--8-8-8------8---8------8---8--11-11-11-|
|-000-0-0---0----0-0---0-----------0-0---0----0-0---0-------------|
PM... . .   .    . .   .           . .   .    . .   .

------------|
------------|
------------|
--0-3-0-----|
--------1-0-|
------------|

|------------------------------------------------------------------------|
|------------------------------------------------------------------------|
|------------------------------------------------------------------------|
|----------------------------------------6h9p6h9p6h9---------3h6p3h6p3h6-|
|---------5---5------8---8-----8-----------------------------------------|
|-000-0-0---0----0-0---0---0-0---0-0-0-0-------------0-0-0-0-------------|
PM... . .   .    . .   .   . .   . . . .             . . . .

-------------------------------------------|
-------------------------------------------|
-------------------------------------------|
-------------------------------------------|
-----------5---6---5-----------8---9---8---|
--0-00-0-0---0---0----9-99-9-9---9---9---9-|
PM. .. . .   .   .    . .. . .   .   .   .


OUTRO

|-----|
|-----|
|-----|
|---0-|
|-0-0-|
|-0-0-|
PM.
comments
print report bad tab
16 comments total. Showing first comments.
0 reply
angel z. wrote on December 3 2007, 08:32 pm

they use 7 strings

0 reply
GuitarNubie wrote on December 3 2007, 08:41 pm

i dont think so but what ever.

0 reply
deaththrashcore wrote on December 3 2007, 09:41 pm

Cool tab, but yeah they do use seven strings, look at pics of them on their myspace or something if you can't hear it on
their music.

I want to post or [tab]
guest
You may want to rate the tab now too:
select rating
Please do not post tabs as comments. Select "correction" instead!