Oops, an error
Loading. Please wait.

Gagged Bound Shelved And Forgotten Tab

version 2
version 2

Whole song

Interactive

4,021 views 1 this week
3 commentsread comments
1 2 3 4 5
accurate
x 6
add to favorites
launch autoscroll
font size
0
reset
how to read this tab
guitar tuner
Tab Pro tools
  • play this tab
  • loop segment
  • change instrument
  • show fretboard
  • metronome
×
Best way to learn
"Gagged Bound Shelved And Forgotten"
Autoscroll
slow
fast
+/-
esc
set tempo
stop
Contributor
Difficulty
Tuning
advanced
B F# B E G# C#
----------------------------------------------------------------------------
            GAGGED, BOUND, SHELVED AND FORGOTTEN - All Shall Perish
----------------------------------------------------------------------------

Tabbed by: Aaron Strachan
Email: aj_strachan@hotmail.co.uk

Tuning: Drop B

This tab is UNCOMPLEATED, i shall finish it soon. Hope you like what there is.


Intro
C#|---------------------|
G#|---------------------|
E |---------------------|
b |-0-0-0-0-00--000-000-|
F#|-0-0-0-0-00--000-000-|
B |-0-0-0-0-00--000-000-|
    x x x x xx  xxx xxx

Guitar 1 0:02
C#|---------------------------------------------------------------|
G#|---------------------------------------------------------------|x3
E |---------------------------------------------------------------|
b |------------------------------------------------2-3-5-3-2h3p2--|
F#|----5-4-5-4h5p4-1-4-1-0--1-0------5-4-5-4h5p4-1--------------3-|
B |-0---------------------------1-0-------------------------------|

Guitar 2 0:10
C#|---------------------------------------------------------------|
G#|---------------------------------------------------------------|x2
E |---------------------------------------------------------------|
b |----3-2-3-2h3p2---3---------------3-2-3-2h3p2---5-7-8-7-5h7p5--|
F#|----------------4---5-4--5p4------------------4--------------8-|
B |-0--------------------------7-0--------------------------------|

Verse 0:24

Guitar 1
C#|----------------------------------------------------------------|
G#|----------------------------------------------------------------| x2
E |----------------------------------------------------------------|
b |-0--0--0000-00--0000-00--000-000-0--0--0000-00--0000-00---------|
F#|-0--0--0000-00--0000-00--000-000-0--0--0000-00--0000-00-7875454-|
B |-0--0--0000-00--0000-00--000-000-0--0--0000-00--0000-00--------8|
    x  x  xxxx xx  xxxx xx  xxx xxx x  x  xxxx xx  xxxx xx

Guitar 2
C#|--------------------------------------------------16--16--|
G#|--------------------------------------------------21--21--|
E |----------------------------------------------------------|  x2
b |-0--0--0000-00--0000-00--000-000-0--0--0000-00--00--00----|
F#|-0--0--0000-00--0000-00--000-000-0--0--0000-00--00--00----|
B |-0--0--0000-00--0000-00--000-000-0--0--0000-00--00--00----|
    x  x  xxxx xx  xxxx xx  xxx xxx x  x  xxxx xx  xx xx

Chorus 

Guitar 1 0:40
C#|-------------------------|
G#|-------------------------|
E |-------------------------| x4
b |-------------3-----------|
F#|---5-4-5-4-5---5-4-5-4-1-|
B |-0-----------------------|

Guitar 2 0:47
C#|-------------------------|
G#|-------------------------|
E |-------------------------| x2
b |-------------6-----------|
F#|---8-7-8-7-8---8-7-8-7-3-|
B |-0-----------------------|

Verse 2 

Guitar 1 0:54
C#|-------------------------------------------------------------|
G#|-------------------------------------------------------------|
E |-------------------------------------------------------------|
b |-00-0-0-00-00-0000-00-0-1-1-3--0-00-0-000-0-00-0-000------3+-|
F#|-00-0-0-00-00-0000-00-0-1-1-3--0-00-0-000-0-00-0-000---------|
B |-00-0-0-00-00-0000-00-0-1-1-3--0-00-0-000-0-00-0-000-8--3----|
    xx x x xx xx xxxx xx          x xx x xxx x xx x xxx

Guitar 2 1:10
C#|---------------------------------------------------------------------|
G#|---------------------------------------------------------------------|
E |---------------------------------------------------------------------|
b |---------------------------------------------------------------------|
F#|-55554444444444444444111144441111----555544444444444444441111-2-3-2-3|
B |---------------------------------0000-------------------------2-3-2-3|

C#|----------------------------------------------------------------|
G#|----------------------------------------------------------------|
E |----------------------------------------------------------------|
b |-------------------------------------------------------------7+-|
F#|-55554444444444444444111144441111----555544448888777755554------|
B |---------------------------------0000---------------------------|

Verse 3 1:23

C#|------------------------------------|
G#|------------------------------------| x2
E |------------------------------------|
b |-0-0--0-0-00-0000-0-----------------|
F#|-0-0--0-0-00-0000-0-4h7p4h7-5h8p5h8-|
B |-0-0--0-0-00-0000-0-----------------|
    x x  x x xx xxxx x 

1:31
C#|----------------------------------------------------|
G#|----------------------------------------------------| x2
E |----------------------------------------------------|
b |-0-0--0-0-00-0000-0---------------------------------|
F#|-0-0--0-0-00-0000-0-4h7p4h7-5h8p5h8-4h7p4h7-1h4p1h4-|
B |-0-0--0-0-00-0000-0---------------------------------|
    x x  x x xx xxxx x

1:40
Guitar 1 plays main riff in the intro.

Guitar 2
C#|----------------------------------|
G#|----------------------------------|
E |-------6-----3--------------------|
b |-0-----6-----3-----000--0-000-000-|
F#|-0-----4-----1-----000--0-000-000-|
B |-0-----------------000--0-000-000-|

Bridge 1:55

Guitar 1
C#|--------------------------------------------------|
G#|--------------------------------------------------|
E |--------------------------------------------------|
b |-7---7-------7-------6-------6-------3-------3----|
F#|--858-8585858-8584747-7474747-7471414-4141414-414-|
B |--------------------------------------------------|

Guitar 2. these are just the notes that are played, not the rhythm. 
C#|-------------------------------|
G#|-18-------17-------15-------14-|
E |-------------------------------|
b |-------------------------------|
F#|-17-------16-------13-------12-|
B |-------------------------------|

Chorus 2? 2:02

Guitar 1
C#|-------------------------------|
G#|-18-----17-----15---17--15--14-|
E |-------------------------------|
b |-15-----14-----12---14--12--11-|
F#|-------------------------------|
B |-------------------------------|

Guitar 2
C#|------------------------------------------------------------------|
G#|------------------------------------------------------------------|
E |-7777------------7777------------3333------------3333-33--2222-22-|
b |-7777------------7777------------3333------------3333-33--2222-22-|
F#|-5555-00000-0-00-5555-00000-0-00-1111-00000-0-00-1111-11--0000-00-|
B |------00000-0-00------00000-0-00------00000-0-00------------------|


| /  slide up
| \  slide down
| h  hammer-on
| p  pull-off
| ~  vibrato
| +  harmonic
| x  Muted note
comments
print report bad tab
3 comments total.
+1 reply
moltr3z wrote on January 24 2012, 12:13 am

Hey I like your tab! It's pretty accurate! Keep up the good work! it's an awesome song.

0 reply
M1nty_hipp0 wrote on August 12 2012, 10:21 pm

Only correct tab for this song I've seen! Thanks so much! If I have any complaints, it's that it's incomplete. But everything else is perfect!

0 reply
Shredtohell wrote on November 21 2014, 09:16 am

Tab incomplete. 1 star from me for incomplete tabs!!! Nothing more irratating and stupid for posting incomplete tabs. What's the point for putting up a tab that is incomplete?

I want to post or [tab]
guest
You may want to rate the tab now too:
select rating
Please do not post tabs as comments. Select "correction" instead!